Oops, an error
Loading. Please wait.

Us And The Night tab

100 views 6 this week
no commentswrite comment
1 2 3 4 5
2 more votes to show rating
add to favorites
×
Save as Personal and add changes to this tab that will be seen only by you. Learn more ›
×
You can save this tab as Personal to edit and correct it or add notes. All changes will be seen only by you. Learn more »
launch autoscroll
font size
0
reset
how to read this tab
guitar tuner
edit
Autoscroll
slow
fast
+/-
esc
set tempo
stop
Author
Difficulty
About this tab version
This was in the request queue. Was this info helpful? Yes No
Us And The Night - 3 Doors Down

This Version --> https://www.youtube.com/watch?v=Awyc8vopiqg


INTRO 

e|---------------------------------------------|-------------------------------------|
B|---------------------------------------------|-------------------------------------|
G|---------------------------------------------|-------------------------------------|
D|---------------------------------------------|-------------------------------------|
A|---------------5-----------------5--/9--7--5-|-------------------------------------|
E|---7--7--5--7--------7--7--5--7--------------|-3--3--0--2--3\----3--3--0--2--3--5--|

VERSE 1 (same as intro)

e|---------------------------------------------|-------------------------------------|
B|---------------------------------------------|-------------------------------------|
G|---------------------------------------------|-------------------------------------|
D|---------------------------------------------|-------------------------------------|
A|---------------5-----------------5--/9--7--5-|-------------------------------------|
E|---7--7--5--7--------7--7--5--7--------------|-3--3--0--2--3\----3--3--0--2--3--5--|

e|---------------------------------------------|-------------------------------------|
B|---------------------------------------------|-------------------------------------|
G|---------------------------------------------|-------------------------------------|
D|---------------------------------------------|-------------------------------------|
A|---------------5-----------------5--/9--7--5-|-------------------------------------|
E|---7--7--5--7--------7--7--5--7--------------|-3--3--0--2--3\----3--3--0--2--3--5--|

PRE-Chorus 1

e|---------------------------------------------------------------|
B|---------------------------------------------------------------|
G|---------------------------------------------------------------|
D|----------------7----------------------------------------------|
A|---9--12--9--7--5--7--5--7--5--/9--7---------------------------|
E|---7--10--7--5-----5--3--5--3--/7--5---------------------------|

e|---------------------------------------------------------------|
B|---------------------------------------------------------------|
G|----------------------7--7--7--7--7----------------------------|
D|----------------7-----5--5--5--5--5----------------------------|
A|---9--12--9--7--5--7-------------------------------------------|
E|---7--10--7--5-----5-------------------------------------------|

CHORUS 1

e|---5--5-5-5-5---(5)----------|--7-------------------------------|
B|---5--7-7-5-7---(7)----------|--7--8-8-7-8---7--8-8-8-10-10-----|
G|---7--7-7-7-7---(7)----------|--7-------------------------------|
D|---7--7-7-7-7---(7)----------|--7-------------------------------|
A|-----------------------------|----------------------------------|
E|-----------------------------|----------------------------------|

e|---5------------(5)----------|--7-------------------------------|
B|---7------------(7)----------|--7--8-8-7-8---7--8-8-8-10-10-----|
G|---7------------(7)----------|--7-------------------------------|
D|---7------------(7)----------|--7-------------------------------|
A|-----------------------------|----------------------------------|
E|-----------------------------|----------------------------------|

e|---5------------(5)----------|--7-------------------------------|
B|---7------------(7)----------|--7--8-8-7-8---7--8-8-8-10-10-----|
G|---7------------(7)----------|--7-------------------------------|
D|---7------------(7)----------|--7-------------------------------|
A|-----------------------------|----------------------------------|
E|-----------------------------|----------------------------------|

e|---------------------------------------------------------------|
B|---------------------------------------------------------------|
G|---4-----------2-----------------------------------------------|
D|---4-----------2-----------5-----------------------------------|
A|---2-----------0-----------5-----------------------------------|
E|---------------------------3-----------------------------------|

Verse Riff (no singing for this bit)

e|---------------------------------------------|-------------------------------------|
B|---------------------------------------------|-------------------------------------|
G|---------------------------------------------|-------------------------------------|
D|---------------------------------------------|-------------------------------------|
A|---------------5-----------------5--/9--7--5-|-------------------------------------|
E|---7--7--5--7--------7--7--5--7--------------|-3--3--0--2--3\----3--3--0--2--3--5--|

VERSE2

e|---------------------------------------------|-------------------------------------|
B|---------------------------------------------|-------------------------------------|
G|---------------------------------------------|-------------------------------------|
D|---------------------------------------------|-------------------------------------|
A|---------------5-----------------5--/9--7--5-|-------------------------------------|
E|---7--7--5--7--------7--7--5--7--------------|-3--3--0--2--3\----3--3--0--2--3--5--|

e|---------------------------------------------|-------------------------------------|
B|---------------------------------------------|-------------------------------------|
G|---------------------------------------------|-------------------------------------|
D|---------------------------------------------|-------------------------------------|
A|---------------5-----------------5--/9--7--5-|-------------------------------------|
E|---7--7--5--7--------7--7--5--7--------------|-3--3--0--2--3\----3--3--0--2--3--5--|

PRE-Chorus 2

e|--------------------------------------|
B|--------------------------------------|
G|--------------------------------------|
D|----------------7---------------------|
A|---9--12--9--7--5--7--5--7--5--/9--7--|
E|---7--10--7--5-----5--3--5--3--/7--5--|

e|--------------------------------------|
B|--------------------------------------|
G|----------------------7--7--7--7--7---|
D|----------------7-----5--5--5--5--5---|
A|---9--12--9--7--5--7------------------|
E|---7--10--7--5-----5------------------|

CHORUS 2

e|---5--5-5-5-5---(5)----------|--7-------------------------------|
B|---5--7-7-5-7---(7)----------|--7--8-8-7-8---7--8-8-8-10-10-----|
G|---7--7-7-7-7---(7)----------|--7-------------------------------|
D|---7--7-7-7-7---(7)----------|--7-------------------------------|
A|-----------------------------|----------------------------------|
E|-----------------------------|----------------------------------|

e|---5------------(5)----------|--7-------------------------------|
B|---7------------(7)----------|--7--8-8-7-8---7--8-8-8-10-10-----|
G|---7------------(7)----------|--7-------------------------------|
D|---7------------(7)----------|--7-------------------------------|
A|-----------------------------|----------------------------------|
E|-----------------------------|----------------------------------|

e|---5------------(5)----------|--7-------------------------------|
B|---7------------(7)----------|--7--8-8-7-8---7--8-8-8-10-10-----|
G|---7------------(7)----------|--7-------------------------------|
D|---7------------(7)----------|--7-------------------------------|
A|-----------------------------|----------------------------------|
E|-----------------------------|----------------------------------|

e|---------------------------------------------------------------|
B|---------------------------------------------------------------|
G|---4-----------2-----------------------------------------------|
D|---4-----------2-----------5-----------------------------------|
A|---2-----------0-----------5-----------------------------------|
E|---------------------------3-----------------------------------|


BRIDGE

e|-----------------------|--------------------------|
B|-----------------------|----\--7------------3-----|
G|------------9---7---6--|-----7---7--------4---4---|
D|----------7---7---7----|---9-------9----5-------5-|
A|---7-7-7---------------|-9------------5-----------|
E|---5-5-5---------------|-7------------3-----------|

e|-----------------------|--------------------------|
B|-----------------------|-------7------------3-----|
G|------------9---7---6--|-----7------------4-------|
D|----------7---7---7----|---9------------5---------|
A|---7-7-7---------------|-9------------5-----------|
E|---5-5-5---------------|-7------------3-----------|

e|-----------------------|--------------------------|
B|-----------------------|-----7--------------------|
G|------------9---7---6--|---7----------------------|
D|----------7---7---7----|--------------------------|
A|---7-7-7---------------|-9------5-5-5-5--5-5-5-5--|
E|---5-5-5---------------|-7------3-3-3-3--3-3-3-3--|

e|---------------------------|---------------------------|
B|---------------------------|---------------------------|
G|---------------------------|---------------------------|
D|---------------------------|---------------------------|
A|-5-5-5-5--5-5-5-5--5-5-5-5-|-5-5-5-5--5-5-5-5--5-5-5-5-|
E|-3-3-3-3--3-3-3-3--3-3-3-3-|-3-3-3-3--3-3-3-3--3-3-3-3-|

CHORUS 3

e|---5--5-5-5-5---(5)----------|--7-------------------------------|
B|---5--7-7-5-7---(7)----------|--7--8-8-7-8---7--8-8-8-10-10-----|
G|---7--7-7-7-7---(7)----------|--7-------------------------------|
D|---7--7-7-7-7---(7)----------|--7-------------------------------|
A|-----------------------------|----------------------------------|
E|-----------------------------|----------------------------------|

e|---5------------(5)----------|--7-------------------------------|
B|---7------------(7)----------|--7--8-8-7-8---7--8-8-8-10-10-----|
G|---7------------(7)----------|--7-------------------------------|
D|---7------------(7)----------|--7-------------------------------|
A|-----------------------------|----------------------------------|
E|-----------------------------|----------------------------------|

e|---5------------(5)----------|--7-------------------------------|
B|---7------------(7)----------|--7--8-8-7-8---7--8-8-8-10-10-----|
G|---7------------(7)----------|--7-------------------------------|
D|---7------------(7)----------|--7-------------------------------|
A|-----------------------------|----------------------------------|
E|-----------------------------|----------------------------------|

e|---------------------------------------------------------------|
B|---------------------------------------------------------------|
G|---4-----------2-----------------------------------------------|
D|---4-----------2-----------5-----------------------------------|
A|---2-----------0-----------5-----------------------------------|
E|---------------------------3-----------------------------------|


CHORUS 4

e|---5--5-5-5-5---(5)----------|--7-------------------------------|
B|---5--7-7-5-7---(7)----------|--7--8-8-7-8---7--8-8-8-10-10-----|
G|---7--7-7-7-7---(7)----------|--7-------------------------------|
D|---7--7-7-7-7---(7)----------|--7-------------------------------|
A|-----------------------------|----------------------------------|
E|-----------------------------|----------------------------------|

e|---5------------(5)----------|--7-------------------------------|
B|---7------------(7)----------|--7--8-8-7-8---7--8-8-8-10-10-----|
G|---7------------(7)----------|--7-------------------------------|
D|---7------------(7)----------|--7-------------------------------|
A|-----------------------------|----------------------------------|
E|-----------------------------|----------------------------------|

e|---5------------(5)----------|--7-------------------------------|
B|---7------------(7)----------|--7--8-8-7-8---7--8-8-8-10-10-----|
G|---7------------(7)----------|--7-------------------------------|
D|---7------------(7)----------|--7-------------------------------|
A|-----------------------------|----------------------------------|
E|-----------------------------|----------------------------------|

e|---------------------------------------------------------------|
B|---------------------------------------------------------------|
G|---4-----------2-----------------------------------------------|
D|---4-----------2-----------5-----------------------------------|
A|---2-----------0-----------5-----------------------------------|
E|---------------------------3-----------------------------------|



Please feel free to edit, correct and comment as necessary..
hopefully some of y'all find it helpful 

**************
/  - Slide up
() - Sustained noted
**************

            
            
Suggest correction
Creating personal tab
Creating personal tab
You can edit any tab online and save it as your Personal.

You can edit, replace or remove any tab part or add personal notes – all changes will be seen only by you.

Personal tabs can be accessed anytime from any device, even offline.
Learn more »
Give kudos to tab author, rate the tab!
1 2 3 4 5
comments
print report bad tab
guest
You may want to rate the tab now too:
select rating
Wanna post a correction for this tab? Suggest correction