Oops, an error
Loading. Please wait.

Punk bass

486 views 1 this week
2 commentsread comments
1 2 3 4 5
2 more votes to show rating
add to favorites
×
Save as Personal and add changes to this tab that will be seen only by you. Learn more ›
×
You can save this tab as Personal to edit and correct it or add notes. All changes will be seen only by you. Learn more »
launch autoscroll
font size
0
reset
guitar tuner
edit
Autoscroll
slow
fast
+/-
esc
set tempo
stop
Intro (start at 00:14)

G|------------------------------------|
D|------------------------------------|    x2
A|------------------222222222222------|
E|-0000000000000000--------------3333-|

Verse 1

G|---------------------------------|
D|---------------------------------|     x2
A|---------------------------------|
E|-0~~~32-0~~~32-33333333-55555555-|        

then

G|-------|
D|-------|
A|-------|
E|-0~~~~-|

Pre-Chorus

G|--------------|
D|--------------|    x1
A|--------------|
E|-55--77777777-|

Chorus 1

G|-----------------------------------------------------|
D|-----------------------------------------------------|    x1
A|-----------------------------------------------------|
E|-0-0-0-00-0000000-7-7-7-77-7777777-5-5-555-7-7777777-|

Chorus 2

G|-----------------------------------------------------|
D|-----------------------------------------------------|    x1
A|-----------------------------------4-4-444-6-6666666-|
E|-0-0-0-00-0000000-7-7-7-77-7777777-------------------|

then

G|-----------|
D|-----------|
A|-----------|
E|-0~~~~~~~~-|

Verse 2

G|---------------------------------------------------|
D|---------------------------------------------------|    x2
A|---------------------------------------------------|
E|-000000000000-32-000000000000-32-33333333-55555555-|

then 

G|------------------|
D|------------------|
A|------------------|
E|-0000000000000000-|

Pre-Chorus x1

Chorus 1 x2

Pre-Chorus (when marcus sings "we just suck, so what?")

Bridge

G|--------------|
D|--------------|  x8
A|---------9-11-|
E|-0-0-000------|
(I'm not sure about that part)

Intro x2

Bridge Continued

G|----------------------------------------------------------------------|
D|----------------------------------------------------------------------| x1
A|-4444444444444444-----------------------------------77777777-66666666-|
E|------------------5555555555555555-7777777777777777-------------------|


G|--------------------------------------------------------------------|
D|--------------------------------------------------------------------| x1
A|-4444444444444444---------------------------------------------------|
E|------------------5555555555555555-77777777777777777777777777777777-|

Pre Chorus x1

Chorus 1 x1

Chorus 2 x1

Chorus 1 x1

then do this

G|-----------------------------------------------|
D|-----------------------------------------------|    x1
A|-----------------------------------44----------|
E|-0-0-0-00-0000000-7-7-7-77-7777777----55555555-|

Bridge x4

end on 

E|-00-|


Sooo that's it.
I'm pretty sure that everything's right.

Have Fun!




 



Suggest correction
Creating personal tab
Creating personal tab
You can edit any tab online and save it as your Personal.

You can edit, replace or remove any tab part or add personal notes – all changes will be seen only by you.

Personal tabs can be accessed anytime from any device, even offline.
Learn more »
Give kudos to tab author, rate the tab!
1 2 3 4 5
comments
print report bad tab
2 comments total.
+1 reply
chrisjenks 2,712 Aug 26, 2008 12:47 PM

ye the first bridge part doesn't sound perfect but the rest is spot on...good job!

+1 reply
chrisjenks 2,712 Aug 26, 2008 01:06 PM

maybe like this:?

G|----------------------------------|
D|----------------------------------|
A|-------------7~--------------11~--| x...
E|-0-0---00-0-0----0-0---00-0-0-----|

guest
You may want to rate the tab now too:
select rating
Wanna post a correction for this tab? Suggest correction