Oops, an error
Loading. Please wait.

Deadly Sinners Tab

version 1
version 1

Intro

Whole song

4,704 views 1 this week
1 commentread comment
1 2 3 4 5
1 last vote to show rating
add to favorites
launch autoscroll
font size
0
reset
how to read this tab
guitar tuner
Autoscroll
slow
fast
+/-
esc
set tempo
stop
Help us to improve Ultimate-Guitar.com Take our survey!
×
  Band - 3 Inches Of Blood
  Song - Deadly Sinners
  Album - Advance and Vanquish (2004, Roadrunner Records)
  
  I found only one other tab for this song but it was slighty off, so I decided to
transcribe it my self. Sorry if there are any mistakes.


   Tab Explanation
   PM... - Palm Mute
   () - Ghost Note/Let Ring 

   Standard Tuning (Low to High): E A D G B E
   Intro
     Double-time Feel
| |-------------------------|------------------|--------------------|
| |-------------------------|------------------|--------------------|
|4|.------------------------|------------------|--------------------|
|4|.--*(7)-----12---10---9--|----7---9---5-5-5-|-7-----12---10---9--|
| |--------0-0----0----0----|--0---0---0-------|-----0----0----0----|
| |-------------------------|------------------|--------------------|
           PM.    .    .       .   .   .             .    .    . 
      *This note is not played 1st time through   

|-------------------||
|-------------------||
|------------------.||
|---7---9---6-6-6--.||
|-----0---0---------||
|-------------------||
       .   .

Lyrics:

Don't walk the cold and ruthless streets 
They drain the life from all they meet 
The servants crying underground 
Smelling mortal blood like hounds 
As you crawl the sewer pipes 
Deadly sinners set to strike 
As you walk around the bend 
You'll be dead right there where you stand 

Flash of iron, leather spikes and swords 
Mighty warriors with metal on their sides 
Enemies of metal, your death is our reward 
Triumphant victory when you bring the steel to life 

Deadly sinners 
Victory when you bring the steel to life 
Deadly sinners 
Crushing the light, stalking the night 
Deadly sinners always win 

Kill the tyrant's endless conquest 
With no mercy, straight for his heart 
Blood lust will overtake anger and violence 
Without warning, lighting strikes in the dark 
Lightning strikes 

Flash of iron, leather spikes and swords 
Mighty warriors with metal on their sides 
Enemies of metal, your death is our reward 
Triumphant victory when you bring the steel to life 

Deadly sinners 
Victory when you bring the steel to life 

Ruling the night, winning the fight 
Taking it all right to the end 
Winning the night, ruling the fight 
Take one last step before you die 

Ruling the night, winning the fight 
Taking it to the end
Suggest correction
Give kudos to tab author, rate the tab!
1 2 3 4 5
comments
print report bad tab
1 comment total.
0 reply
Maartenwuyts 325 Jul 18, 2006 03:00 PM

|--------------------|--------------------|
|--------------------|--------------------|
|--------------------|--------------------|
|--------7-5-4-2-4---|--------7-5-4-2-4---|
|--5-5-7-----------6-|--6-6-7-----------?-|
|--------------------|--------------------|

i think the 1st part of th intro is played this way but im already stuck with it:s
buth you did a really good job mate;)
CHEERS!

guest
You may want to rate the tab now too:
select rating
Wanna post a correction for this tab? Suggest correction