Oops, an error
Loading. Please wait.

Deadly Sinners Tab

version 1
version 1

Whole song

22,412 views 1 this week
7 commentsread comments
1 2 3 4 5
x 12
add to favorites
launch autoscroll
font size
0
reset
how to read this tab
guitar tuner
Autoscroll
slow
fast
+/-
esc
set tempo
stop
Help us to improve Ultimate-Guitar.com Take our survey!
×
Deadly Sinners by 3 Inches of Blood

KICK ASS SONG!!!
played in drop d. * indicates palm mute, ^ indicates harmonic, ))) = let ring  |
                  h = hammer on, p = pull off

Intro: play 1x  ***(NOTE:some of the lines were too long but the tab is still right)***
E|----------------------------------------|------------------------------------|
B|----------------------------------------|------------------------------------|
G|---7-5-4-2-4--------7-5-4-2-4-----------|--7-5-4-2-4--------7-5-4-2-4--88-9--|
D|--------------55-7-------------66-7-----|-------------55-7-------------66-7--|
A|----------------------------------------|------------------------------------|
D|----------------------------------------|------------------------------------|

Verse: play 2X

E|---------------------------------------------------------------------------|
B|---------------------------------------------------------------------------|
G|-----4--5--6--------4--5---------4--5--6--------4--5-----------------------|
D|-------6--7--8--------6--7---------6--7--8--------6--7---------------------|
A|-----------------7-----------5-7-------------7-------------5-7-------------|
D|-----------------7-----------5-7-------------7-------------5-7-------------|


Chorus: play 2X

          ))))))))))))))))     ))))))))))))))))      ))))))))))))))))
E|---------------------------------------------------------------------------|
B|---------------------------------------------------------------------------|
G|---7-7--9--------------7-7--9-----------------7-7--5---------------7-7--9--|
D|---5-5--7--------------5-5--7-----------------5-5--3---------------5-5--7--|
A|---------------------------------------------------------------------------|
D|---------------------------------------------------------------------------|


Verse:
                ^ ^^                 ^ ^^                  ^ ^^
E|----------------------------------------------------------------------------|
B|----------------------------------------------------------------------------|
G|7-7--9--------5-4---7-7--9---------5-4----7-7--5---------5-4---7-7--9-------|
D|5-5--7--7p5h7----5--5-5--7--7p5h7-----5---5-5--3--7p5h7---5--5-5--7--7p5h7--|
A|----------------------------------------------------------------------------|
D|----------------------------------------------------------------------------|
                                    (had to cut the rest off, you get the idea.)

E|---------------------------------------------------------------------------|
B|---------------------------------------------------------------------------|
G|---------------------------------------------------------------------------|
D|---------------------------------------------------------------------------|
A|-7---7-7-7-7-7-7---7---7-7-7-7-7-7---3---3-3-3-3-3-3---10--10-10-10-10-10--|
D|-7---7-7-7-7-7-7---7---7-7-7-7-7-7---3---3-3-3-3-3-3----9---9--9--9--9--9--|
       ***********       ***********       ***********        *************
          (insanely fast strumming palm mutes, not exact, listen to song.)

E|---------------------------------------------------------------------------|
B|---------------------------------------------------------------------------|
G|----5p4h5--7--5p4--5--4p2--4--2--0-----------------------------------------|
D|---------------------------------------------------------------------------|
A|---------------------------------------------------------------------------|
D|---------------------------------------------------------------------------|
               (play a couple times then palm mute.)

KICKS ASS SONG!!!
Suggest correction
comments
print report bad tab
7 comments total. Showing first comments.
0 reply
Enemy Of God 10 Jul 05, 2005 12:00 AM

No. this isnt it at all. the intro is played up at the 12th fret on the 4th string and its not in dropped d. I dunno where u got that idea from. Also, the pre-chorus is very wrong

0 reply
Pimpinguitarist 50 Nov 11, 2005 06:03 PM

non accurate

-2 reply
Pimpinguitarist 50 Nov 11, 2005 06:04 PM

bitch

guest
You may want to rate the tab now too:
select rating
Wanna post a correction for this tab? Suggest correction