Oops, an error
Loading. Please wait.

Metal Woman Tab

1,015 views 3 this week
no commentswrite comment
1 2 3 4 5
excellent!
x 1
add to favorites
launch autoscroll
font size
0
reset
how to read this tab
guitar tuner
Tab Pro tools
  • play this tab
  • loop segment
  • change instrument
  • show fretboard
  • metronome
Autoscroll
slow
fast
+/-
esc
set tempo
stop
Contributor
Metal Woman

. = palm mute
\ = slide
h = Hammer on
p = pulloff

[INTRO]

GTR1
[|---------------------9----------------------9---------]
[|---7---9--10---7---7------7---9--10---7---7-----------]
[|-----6-----------6----------6-----------6-------------]
[|------------------------------------------------------]
[|------------------------------------------------------]
[|------------------------------------------------------]
[                                                       ] x4
[|---------------------10-------------------------------]
[|---7---9--10---7---7------7---9--10---5---7\9--7------]
[|-----7-----------7----------7-----------6-------------]
[|------------------------------------------------------]
[|------------------------------------------------------]
[|------------------------------------------------------]

GTR2[RIFF]
|-------------------------------------------------------------------------|
|-------------------------------------------------------------------------|
|-------------------------------------------------------------------------|
|---11-----7------9--11-----7-----9--11-----7-----9--11-----7------9--11--|
|---9------5------7--9------5-----7--9------5-----7--9------5------7--9---|
|-------------------------------------------------------------------------|

GTR3[BASS]0:46
|-----------------------------------------------------------------|
|-----------------------------------------------------------------|
|-----------------------------------------------------------------|
|-----------------------------------------------------------------|
|-----------------------------------------------------------------|
|--2--0--2-2-2-0-2--5-2-0-2--2-2-0-2-2-0-2-7-5-0-0-5-2-0-2--2-2-0-|

|----------------------------------------------------------------|
|----------------------------------------------------------------|
|----------------------------------------------------------------|
|----------------------------------------------------------------|
|---------------------------------------------------------5-4----|
|--2--0--2-2-2-0-2--5-2-0-2--2-2-0-2-2-0-2-7-5-0-0-5-2-0---------|

|-----------------------------------------------------------------|
|-----------------------------------------------------------------|
|-----------------------------------------------------------------|
|-----------------------------------------------------------------|
|-----------------------------------------------------------------|
|--2--0--2-2-2-0-2--5-2-0-2--2-2-0-2-2-0-2-7-5-0-0-5-2-0-2--2-2-0-|

|----------------------------------------------------------------|
|----------------------------------------------------------------|
|----------------------------------------------------------------|
|----------------------------------------------------------------|
|---------------------------------------------------------5-7----|
|--2--0--2-2-2-0-2--5-2-0-2--2-2-0-2-2-0-2-7-5-0-0-5-2-0---------|

|-----------------------------------------------------------------|
|-----------------------------------------------------------------|
|-----------------------------------------------------------------|
|-----------------------------------------------------------------|
|-----------------------------------------------------------------|
|--2--0--2-2-2-0-2--5-2-0-2--2-2-0-2-2-0-2-7-5-0-0-5-2-0-2--2-2-0-|

|----------------------------------------------------------------|
|----------------------------------------------------------------|
|----------------------------------------------------------------|
|----------------------------------------------------------------|
|---------------------------------------------------------5------|
|--2--0--2-2-2-0-2--5-2-0-2--2-2-0-2-2-0-2-7-5-0-0-5-2-0---------|

VERSE
GTR1(play this two times)

|------------------------------------------------------------|
|------------------------------------------------------------|
|------------------------------------------------------------|
|------------------------------------------------------------|
|---2--4----------------------2-2-4------------------------4-|
|---0--2--3-3-3-3-3-3-3-3-3-3-0-0-2-3-3-3-3-3-3--7-5-2-0---2-|
          . . . . . . . . . .       . . . . . .

|-----------------------------------------------|
|-----------------------------------------------|
|-----------------------------------------------|
|-----------------------------------------------|
|---------------------2-2-4---------------------|
|-3-3-3-3-3-3-3-3-3-3-0-0-2-3-3-3-3-3-3-9-7-5-0-|
  . . . . . . . . . .       . . . . . .

|----------------------------------------------|
|----------------------------------------------|
|----------------------------------------------|
|----6--7--9--7--------------6--7--9--6----9---|
|-9--4--5--7--5-----------9--4--5--7--4----7---|
|-7-----------------------7--------------------|

CHORUS
|----------------------------------------------|
|----------------------------------------------|
|----------------------------------------------|
|----------------------------------------------|
|-4--4--4------------------------------------2-|
|-2--2--2--3-3-3-3-3-3-3-3-3-3-3-3-3-3-3-3-3-0-|
           . . . . . . . . . . . . . . . . .     

|----------------------------------------------|
|----------------------------------------------|
|----------------------------------------------|
|------------------------------7---------------|
|-4--4--4----------------------5---------------|
|-2--2--2--3-3-3-3-3-3-3-3-3-3-----------------|
           . . . . . . . . . .

GTR2

|-------------9--------------------------------|
|-9h10p9-10-12--12-10---10--10-----------------|
|---------------------11---9---11--------------|
|----------------------------------------------|
|----------------------------------------------|
|----------------------------------------------|
comments
We did not receive enough feedback on this tab! Please rate:
print report bad tab
1 2 3 4 5
I want to post or [tab]
guest
You may want to rate the tab now too:
select rating
Please do not post tabs as comments. Select "correction" instead!