Oops, an error
Loading. Please wait.

Onward To Valhalla Tab

version 1
version 1

Whole song

Interactive

563 views 1 this week
no commentswrite comment
1 2 3 4 5
2 more votes to show rating
add to favorites
launch autoscroll
font size
0
reset
how to read this tab
guitar tuner
Autoscroll
slow
fast
+/-
esc
set tempo
stop
Help us to improve Ultimate-Guitar.com Take our survey!
×
Author
Difficulty
novice
3 Inches of Blood
Onward to Valhalla
Tuning: standard

This is my first tab...

introriff1:
gtr1
|----------------------------------------------------------|
|----------------------------------------------------------|
|----------------------------------------------------------|
|-5-------------7-------------9----------------------------|
|-3-333-333-333-5-555-555-555-7-777-777-777--10--9--7--5---|
|----------------------------------------------------------|
    ... ... ...   ... ... ...   ... ... ...

gtr2
|---------------------------------------------------------------|
|---------------------------------------------------------------|
|---------------------------------------------------------------|
|---------------------------------------------------------------|
|-10-9-10-12-10-9-3---10-9-7---10-9-7-5---3---10-9-7---10-9-7-5-|
|---------------------------------------------------------------|
gtr2
|--------------------------------------------------|
|--------------------------------------------------|
|--------------------------------------------------|
|--------------------------------------------------|
|--3---10-9-7--10-9-7-5--3--10-9-7--10-9-7-5-------|
|--------------------------------------------------|

gtr2
|-----------------------------------------------|
|-----------------------------------------------|
|-----------------------------------------------|
|--10-9-7---10--9-------10-9-10---12--10--9-----| x8
|------------------10---------------------------|
|-----------------------------------------------|

before the verse there goes something like this:
gtr2
|-----------------------------------------------|
|-----------------------------------------------|
|-----------------------------------------------|
|-----------------------------------------------|
|--7--9--5--9--10--12--14--19-------------------|
|-----------------------------------------------|


verse:
gtr1
|------------------------------------------------------|
|------------------------------------------------------|
|------------------------------------------------------|
|--9--------------9----------------9-----------------9-|
|--7--------------7----------------7-----------------7-|
|---000-000-000-00---000-000-000-00----000-000-000-00--|
    ... ... ... ..   ... ... ... ..    ... ... ... ..

chorus:
gtr1
|----------------------------------------------------------|
|----------------------------------------------------------|
|----------------------------------------------------------|
|-5-------------7-------------9----------------------------|
|-3-333-333-333-5-555-555-555-7-777-777-777--10--9--7--5---|
|----------------------------------------------------------|
    ... ... ...   ... ... ...   ... ... ...

gtr2
|-----------------------------------------------|
|-----------------------------------------------|
|-----------------------------------------------|
|-----------------/12-10-9--10-9-7--10-9-7------| x4
|--7-9-10--7-9-10-------------------------------|
|-----------------------------------------------|


Then goes the verse again

Before the 2nd chorus there goes this on the gtr2:
|-----------------------------------------------|
|-----------------------------------------------|
|-----------------------------------------------|
|-----------------------------------------------|
|--10-9-7--5-7-9--10-9-7--5-7-9-----------------|
|-----------------------------------------------|

chorus x4

Bridge:
gtr1
|------------------------------------|
|------------------------------------|
|------------------------------------|
|-5----7----9------5----7----9-------|
|-3----5----7------3----5----7-------|
|------------------------------------|
I can't figure out gtr2 in the bridge...

the part after the bridge:
gtr1
|----------------------------------------------------------|
|----------------------------------------------------------|
|----------------------------------------------------------|
|-5-------------7-------------9----------------------------|
|-3-333-333-333-5-555-555-555-7-777-777-777--10--9--7--5---|
|----------------------------------------------------------|
    ... ... ...   ... ... ...   ... ... ...
gtr2
|-----------------------------------------------|
|-----------------------------------------------|
|-----------------------------------------------|
|-----------------------------7-9-9-------------| x4
|--10-9-7---10-9-7---10-9-7---------------------|
|-----------------------------------------------|
gtr2
|----------------------------------------------------------|
|----------------------------------------------------------|
|----------------------------------------------------------|
|------------------7----7----7----97--97--97---97--97--97--|
|--1097-1097-109----109--109--10----10--10-------10--10----| x4
|----------------------------------------------------------|
these numbers are 7s,9s and 10s

Ending riff:
gtr1
|-------------------------------------||
|-------------------------------------||
|-------------------------------------||
|-5----7----9-------5----7----99------||
|-3----5----7-------3----5----77------|| 
|-------------------------------------||
Suggest correction
Give kudos to tab author, rate the tab!
1 2 3 4 5
comments
print report bad tab
guest
You may want to rate the tab now too:
select rating
Wanna post a correction for this tab? Suggest correction