Oops, an error
Loading. Please wait.

Rejoice In The Fire Of Mans Demise Bass Tab

version 1
version 1

Whole song

Interactive

446 views 3 this week
no commentswrite comment
1 2 3 4 5
please rate
add to favorites
launch autoscroll
font size
0
reset
guitar tuner
Autoscroll
slow
fast
+/-
esc
set tempo
stop
Help us to improve Ultimate-Guitar.com Take our survey!
×
Transcribed by patch adams

Nick Cates

     W                   H        Q    Q       Q    Q    Q    Q     
G||-------------------|---------------------|----------------------|
D||-------------------|---------------------|----------------------|
A||-------------------|-----------6----8----|-------8---------8----|
E||-------------------|---------------------|----------------------|


  Q    Q    Q    Q       Q    Q    Q    Q       Q    Q    Q    Q     
----------------------|----------------------|----------------------|
----------------------|----------------------|----------------------|
-------8----6----8----|-------8---------8----|-------8----6----8----|
----------------------|----------------------|----------------------|


  Q    Q    Q    Q       Q    Q    Q    Q     
----------------------|----------------------|
----------------------|----------------------|
-------8---------8----|-------8----6----8----|
----------------------|----------------------|


    |--3--|  |--3--|  |--3--|          |--3-|       |--3-|        
    E  E  E  E  E  E  E  E  E  Q       Q    E  Q    Q    E  Q     
|-----------------------------------|----------------------------|
|*----------------------------------|----------------------------|
|*--8--8--8--8--8--8--8--8--8--8----|--8----8--8----6----6--8----|
|-----------------------------------|----------------------------|


  |--3--|  |--3--|  |--3--|          |--3-|       |--3-|        
  E  E  E  E  E  E  E  E  E  Q       Q    E  Q    Q    E  Q     
----------------------------------|----------------------------|
----------------------------------|----------------------------|
--8--8--8--8--8--8--8--8--8--8----|--8----8--8----6----6--8----|
----------------------------------|----------------------------|


  |--3--|  |--3--|  |--3--|  |--3--|     |--3--|  |--3--|  |--3--|        
  E  E  E  E  E  E  E  E  E  E  E  E     E  E  E  E  E  E  E  E  E  Q     
--------------------------------------|----------------------------------|
--8--8--8--8--8--8--8--8--8--8--8--8--|--8--8--8--8--8--8--8--8--8-------|
--------------------------------------|----------------------------------|
--------------------------------------|-----------------------------4----|


  |--3--|  |--3--|  |--3--|  |--3--|     |--3--|  |--3--|  |--3--|          
  E  E  E  E  E  E  E  E  E  E  E  E     E  E  E  E  E  E  E  E  E  Q     3x
--------------------------------------|-----------------------------------||
--8--8--8--8--8--8--8--8--8--8--8--8--|--8--8--8--8--8--8--8--8--8-------*||
--------------------------------------|----------------------------------*||
--------------------------------------|-----------------------------4-----||


   |--3-|  |--3--|  |--3-|  |--3--|     |--3-|  |--3--|             
   Q    E  E  E  E  Q    E  E  E  E     Q    E  E  E  E  Q    Q     
-------------------------------------|-----------------------------|
*------------------------------------|-----------------------------|
*--8----8--8--8--8--8----8--8--8--8--|--8----8--8--8--8--6----8----|
-------------------------------------|-----------------------------|


  |--3-|  |--3--|  |--3-|  |--3--|     |--3-|  |--3--|               
  Q    E  E  E  E  Q    E  E  E  E     Q    E  E  E  E  Q    Q       
------------------------------------|------------------------------||
------------------------------------|-----------------------------*||
--8----8--8--8--8--8----8--8--8--8--|--8----8--8--8--8--6----8----*||
------------------------------------|------------------------------||


   |--3-|  |--3--|  |--3-|  |--3--|     |--3-|  |--3--|               
   Q    E  E  E  E  Q    E  E  E  E     Q    E  E  E  E  Q    Q     4x
-------------------------------------|------------------------------||
*------------------------------------|-----------------------------*||
*--8----8-----------8----8-----------|--8----8-----------6----8----*||
-------------------------------------|------------------------------||


  |--3-|  |--3--|                                                     
  Q    E  E  E  E  Q    Q       W                   W                 
-----------------------------|-------------------|-------------------|
-----------------------------|-------------------|-------------------|
--8----8-----------6----8----|--L----------------|--L----------------|
-----------------------------|-------------------|-------------------|


  W                   W                  
-------------------|-------------------||
-------------------|-------------------||
--L----------------|--L----------------||
-------------------|-------------------||




Duration Legend
---------------
W - whole
H - half
Q - quarter
E - 8th
S - 16th
T - 32nd
X - 64th
. - note dotted
|-n-|  - n-tuplets


Tablature Legend
----------------
L - tied note
x - dead note
g - grace note
(n) - ghost note
> - accentuded note
NH - natural harmonic
AH - artificial harmonic
TH - tapped harmonic
SH - semi harmonic
PH - pitch harmonic
h - hammer on
p - pull off
b - bend
br - bendRelease
pb - preBend
pbr - preBendRelease
brb - bendReleaseBend
\n/ - tremolo bar dip
\n - tremolo bar dive
-/n - tremolo bar Release up
/n\ - tremolo bar inverted dip
/n - tremolo bar return
-\n - tremolo bar Release down
S - shift slide
s - legato slide
/ -  slide into from below or out of upwards
\ -  slide into from above or out of downwards
~ - vibrato
W - wide vibrato
tr - trill
TP - tremolo picking
T - tapping
S - slap
P - pop
< - fade in
^ - brush up
v - brush down
Suggest correction
Give kudos to tab author, rate the tab!
1 2 3 4 5
comments
print report bad tab
guest
You may want to rate the tab now too:
select rating
Please do not post tabs as comments. Select "correction" instead!