Oops, an error
Loading. Please wait.

Rejoice In The Fire Of Mans Demise Tab

version 1
version 1

Whole song

Interactive

2,536 views 1 this week
no commentswrite comment
1 2 3 4 5
please rate
add to favorites
launch autoscroll
font size
0
reset
how to read this tab
guitar tuner
Tab Pro tools
  • play this tab
  • loop segment
  • change instrument
  • show fretboard
  • metronome
×
Best way to learn
"Rejoice In The Fire Of Mans Demise"
Autoscroll
slow
fast
+/-
esc
set tempo
stop
Contributor
Difficulty
Guitar 1          Intro:
d#|------------------------------------------------------------|
A#|------------------------------------------------------------|
F#|------------------------------------------------------------|X4
C#|------------------------------------------------------------|
G#|9--11-12-11-9-9-11-12-11---9-11-12-11-9----9-11-9-----------|
D#|---------------------------------------12-------------------|

Guitar 2
d#|---------------------------------------------------------|
A#|---------------------------------------------------------|
F#|---------------------------------------------------------|
C#|-2-4---4---4---4-2-4---4---4---4-2-4---4---4---4-2-4-----|
G#|-2-4---4---4---4-2-4---4---4---4-2-4---4---4---4-2-4-----|
D#|-0-2---2---2---2-0-2---2---2---2-0-2---2---2---2-0-2-----|

Guitar 1          Riff 1
d#|------------------------------------------------------------|
A#|------------------------------------------------------------|
F#|------------------------------------------------------------|
C#|------------------------------------9-----------------------|X2
G#|9-11-12-11-9--9-11-12-11---9-11-12----12-11-----------------|
D#|------------12----------------------------------------------|

Guitar 2
d#|---------------------------------------------------------------|
A#|---------------------------------------------------------------|
F#|---------------------------------------------------------------|
C#|------11--------------11----------11---12----------------------|X2
G#|12-14---14-12-11-12-14--14---12-14-------11-14-----------------|
D#|---------------------------------------------------------------|

Guitar 1                 Riff 2
d#|---------------------------------------------------------------|
A#|---------------------------------------------------------------|
F#|-------9---------------------------9---------------------------|
C#|9-11-12-12-11-12-11-9--9-11-9-11-12-12-11-12-11-9--------------|X2
G#|---------------------12--------------------------12------------|
D#|---------------------------------------------------------------|

Guitar 2
d#|---------------------------------------------------------------|
A#|---------------------------------------------------------------|
F#|-----11-12-11--11--------------------11-12-11--11--------------|X2
C#|12-14--------14--14-12-11-12-14-12-14--------14--14-12-11------|
G#|---------------------------------------------------------------|
D#|---------------------------------------------------------------|


Guitar 1            Repeat riff 1
d#|-----------------------------------------------------------------|
A#|-----------------------------------------------------------------|
F#|-----------------------------------------------------------------|
C#|------------------------------------9----------------------------|X2
G#|9-11-12-11-9--9-11-12-11---9-11-12----12-11----------------------|
D#|------------12---------------------------------------------------|

Guitar 2
d#|-------------------------------------------------------------------|
A#|-------------------------------------------------------------------|
F#|-------------------------------------------------------------------|
C#|------11--------------11----------11---12--------------------------|X2
G#|12-14---14-12-11-12-14--14---12-14-------11-14---------------------|
D#|-------------------------------------------------------------------|


Guitar 1           Repeat Riff 2
d#|-------------------------------------------------------------------|
A#|-------------------------------------------------------------------|
F#|-------9---------------------------9-------------------------------|
C#|9-11-12-12-11-12-11-9--9-11-9-11-12-12-11-12-11-9------------------|X2
G#|---------------------12--------------------------12----------------|
D#|-------------------------------------------------------------------|


Guitar 2
d#|------------------------------------------------------------------|
A#|------------------------------------------------------------------|
F#|-----11-12-11--11--------------------11-12-11--11-----------------|X2
C#|12-14--------14--14-12-11-12-14-12-14--------14--14-12-11---------|
G#|------------------------------------------------------------------|
D#|------------------------------------------------------------------|


Guitar 1            Repeat riff 1
d#|------------------------------------------------------------------|
A#|------------------------------------------------------------------|
F#|------------------------------------------------------------------|
C#|------------------------------------9-----------------------------|X2
G#|9-11-12-11-9--9-11-12-11---9-11-12----12-11-----------------------|
D#|------------12----------------------------------------------------|

Guitar 2
d#|-------------------------------------------------------------------|
A#|-------------------------------------------------------------------|
F#|-------------------------------------------------------------------|
C#|------11--------------11----------11---12--------------------------|X2
G#|12-14---14-12-11-12-14--14---12-14-------11-14---------------------|
D#|-------------------------------------------------------------------|


Guitar 1           Repeat Riff 2
d#|-------------------------------------------------------------------|
A#|-------------------------------------------------------------------|
F#|-------9---------------------------9-------------------------------|
C#|9-11-12-12-11-12-11-9--9-11-9-11-12-12-11-12-11-9------------------|X2
G#|---------------------12--------------------------12----------------|
D#|-------------------------------------------------------------------|


Guitar 2
d#|--------------------------------------------------------------------|
A#|--------------------------------------------------------------------|
F#|-----11-12-11--11--------------------11-12-11--11-------------------|X2
C#|12-14--------14--14-12-11-12-14-12-14--------14--14-12-11-----------|
G#|--------------------------------------------------------------------|
D#|--------------------------------------------------------------------|

Guitar 1                Outro:
d#|--------------------------------------------------------------------|
A#|--------------------------------------------------------------------|
F#|--------------------------------------------------------------------|X4
C#|--------------------------------------------------------------------|
G#|9--11-12-11-9-9-11-12-11---9-11-12-11-9----9-11-9-------------------|
D#|---------------------------------------12---------------------------|


Gtr II PM----|     |----|      |----|
d#|--------------------------------------------------------------------|
A#|--------------------------------------------------------------------|
F#|--------------------------------------------------------------------|
C#|11-11------11-11------11-11--------9-11-----------------------------|X4
G#|-9--9-9-9-9-9--9-9-9-9-9--9-9-9-9--7--9-----------------------------|
D#|--------------------------------------------------------------------|
         . . .      . . .      . . .

Both Guitars
d#|--------------------------------------------------------------------|
A#|--------------------------------------------------------------------|
F#|--------------------------------------------------------------------|
C#|4-4-------4-4-------4-4-------2-4-----------------------------------|X4
G#|2-2-------4-4-------4-4-------2-4-----------------------------------|
D#|2-2-2-2-2-2-2-2-2-2-2-2-2-2-2-0-2-----------------------------------|
       . . .     . . .     . . .   Let last note ring.



This is my first tab and I'm 99% sure it's correct, but I could be far off :P
If you have any questions or comments just email: snowboards2k2@sbcglobal.net
comments
We did not receive enough feedback on this tab! Please rate:
print report bad tab
1 2 3 4 5
I want to post or [tab]
guest
You may want to rate the tab now too:
select rating
Please do not post tabs as comments. Select "correction" instead!