Oops, an error
Loading. Please wait.

Trial Of Champions Tab

version 2
version 2

Solo

Whole song

766 views 1 this week
no commentswrite comment
1 2 3 4 5
please rate
add to favorites
launch autoscroll
font size
0
reset
how to read this tab
guitar tuner
Tab Pro tools
  • play this tab
  • loop segment
  • change instrument
  • show fretboard
  • metronome
×
Best way to learn
"Trial Of Champions"
Autoscroll
slow
fast
+/-
esc
set tempo
stop
Contributor
The dude used a lot of weird effects and stuff so I decided to make my own version of 
solo that's a little easier and is similar to the original.
It's my first tab, so bear with with me, especially on the timing.

e|--17b---17b--17-14-14h17--17p14-----------------------------------------|
B|---------------------------------17p15----------------------------------|
G|----------------------------------------16p14---------------------------|
D|-----------------------------------------------17b--17b-17-14-14h17-14--|
A|------------------------------------------------------------------------|
E|------------------------------------------------------------------------|

e|-------------------------------|
B|-------------------------------|
G|-------------------------------|
D|-----3-------------------------|
A|-3-5---5-3-------3-------3-----|
E|-----------5-3-5---5-3-5---5-3-|

e|--------------------------------------------------|
B|--------------------------------------------------|
G|--14-16-16-b16-16-16-16-16-16-16-16-r16-p14-------|
D|--------------------------------------------16----|
A|--------------------------------------------------|
E|--------------------------------------------------|
------------[Bend hit 7 times and then return]------|
----------------(pluck while returning too)---------|

e|----18b-p15-17--18b-p15-17--18b-p15-17--18b-p15-17--|
B|----------------------------------------------------|
G|----------------------------------------------------|
D|----------------------------------------------------|
A|----------------------------------------------------|
E|----------------------------------------------------|
comments
We did not receive enough feedback on this tab! Please rate:
print report bad tab
1 2 3 4 5
I want to post or [tab]
guest
You may want to rate the tab now too:
select rating
Please do not post tabs as comments. Select "correction" instead!