Oops, an error
Loading. Please wait.

My First Kiss Tab

version 3
version 3

Whole song

Interactive

6,626 views 1 this week
1 commentread comment
1 2 3 4 5
accurate
x 4
add to favorites
launch autoscroll
font size
0
reset
how to read this tab
guitar tuner
Autoscroll
slow
fast
+/-
esc
set tempo
stop
Help us to improve Ultimate-Guitar.com Take our survey!
×
Author
Difficulty
novice

Verse

e|-----------------|
B|-----------------|
G|--9--------------|       Play this everytime u hear guitar in the verse
D|--9--------------|
A|--7--------------|
E|-----------------|

Pre-chorus

e|------------------------------------------------------------------------|
B|------------------------------------------------------------------------|
G|--9---7---5---5---------------------------------------------------------|
D|--9---7---5---5---------------------------------------------------------| X2
A|--7---5---3---3---------------------------------------------------------|
E|------------------------------------------------------------------------|


Chorus


e|-------------------|-------------------------------------|------------------|
B|-------------------|-------------------------------------|------------------|
G|--9-----7-----5----|---14P-12-14-12----------------------|------------------|
D|--9 X 8--7 X 8--5 X16-|---------------14-12-14-12-----------| X2------------|X2
A|--7-----5-----3----|--------------------------14-12-14-12|------------------|
E|-------------------|-------------------------------------|------------------|

Just keep repeating this for an example you can watch this its very easy 
http://www.youtube.com/watch?v=25EoTEuGGfU
Suggest correction new What's this?
You can suggest a correction to this tab. Community and Mods will review your correction and vote to approve or reject it.
comments
print report bad tab
1 comment total.
0 reply
nfrench7fold 484 wrote on August 4 2010, 12:29 am

Best tab on this site but there are a few parts where it doesnt sound right. I know the 'oooooohhh' part in the chorus goes like this.

----------------------------------------------
-12-------------------------------------------
----14-12-14-12-------------------------------
----------------14-12-14-12-------------------
----------------------------14-12-14-12~------
----------------------------------------------

^your just missing the 12 on the B string
at the beginning.

guest
You may want to rate the tab now too:
select rating
Please do not post tabs as comments. Select "correction" instead!