Oops, an error
Loading. Please wait.

All About You Tab

911 views 1 this week
no commentswrite comment
1 2 3 4 5
3 more votes to show rating
add to favorites
launch autoscroll
font size
0
reset
how to read this tab
guitar tuner
Autoscroll
slow
fast
+/-
esc
set tempo
stop
Help us to improve Ultimate-Guitar.com Take our survey!
×
40 Below Summer: All About You
Tabbed by 2Fisted
Tuning: Drop B

Intro(clean)
-----------  |----------------|
-----------  |----------------|
---4----5--  |---4------------|
--4-4--5-5-X6|--4--4~---------|
-2----2----  |-2---2~---------|
-----------  |----------------|
Verse(clean)
---------------------------------|
----------------------------5----|
---4----5----4----5----4---------|
--4-4--5-5--4-4--5-5--4-4--5--5--|
-2----2----2----2----2----2------|
---------------------------------|
Pre-Chorus(dist.)
--------|
--------|
-6~-----|
-6~-----|
-4~-----|
--------|
Chorus
--------------------------------|
--------------------------------|
------------------------7~---7~-|
------------------------7~---7~-|
-0346540-0-00-0--034654-5~-0-5~-|
-0346540-0-00-0--034654----0----|
         . .. .            .
---------------------------|
---------------------------|
-----------------------5b--|
---------------------------|
-346540-0-00-0--034654-----|
-346540-0-00-0--034654-----|
        . .. .
Chorus 2(last time played, leave out the last 3 notes)
----------------------------------|
----------------------------------|
-----5------5b-----5------5b---5b-|
----------------------------------|
-00-0--00-0----00-0--00-0----00---|
-00-0--00-0----00-0--00-0----00---|
 .. .  .. .    .. .  .. .    ..
Interlude 1
----------------------------|
----------------------------|
----------------------------|
-0~------0~------0~------0~-|
-0~-00-0-0~-00-0-0~-00-0-0~-|
-0~-00-0-0~-00-0-0~-00-0-0~-|
    .. .    .. .    .. .
Interlude 2(clean, verse variation)
--------------------------------------------------|
----------------------------------------------5---|
---4------5----4------5----4------5----4----------|
--4-4----5-5--4-4----5-5--4-4----5-5--4-4----5--5-|
-2----2-2----2----2-2----2----2-2----2----2-2-----|
--------------------------------------------------|
*Play interlude 1 a couple times**
Outro
----------|
----------|
----------|
------0~--|
-00-0-0~--|
-00-0-0~--|
 .. .
Suggest correction
Give kudos to tab author, rate the tab!
1 2 3 4 5
comments
print report bad tab
guest
You may want to rate the tab now too:
select rating
Wanna post a correction for this tab? Suggest correction