Oops, an error
Loading. Please wait.

Falling Down Bass

version 1
version 1

Whole song

Interactive

379 views 1 this week
no commentswrite comment
1 2 3 4 5
x 3
add to favorites
launch autoscroll
font size
0
reset
guitar tuner
Autoscroll
slow
fast
+/-
esc
set tempo
stop
Author
Artist: 40 Below Summer
Song: Falling Down
Tabber: c0z420
Tuning B F# B E

Submitted By: Stand Alone (projectwyze13@hotmail.com)

Intro:                              
E |----10--11--12---11---10--|---------------------------------|
B |--9---9----9---9----9-----|---------------------------------|
F#|--------------------------|---------------------------------|
B |--------------------------|-3-3-3-3-3-3-3-3-x-x-x-3-3-3-3-3-|
                                  
Verse:(w/dist)        
E |-------------------------------------|
B |-------------------------------------|
F#|-------------------------------------|
B |-12--12p10--10n12--12p13--10h12--10--|

Verse-Fill:
E |-----------------------------------------|
B |-----------------------------------------|
F#|-----------------------------------------|
B |12------12--10------10--12------12--13---|

Chorus:
E |-----------------------------------------------------------------|
B |-----------------------------------------------------------------|
F#|-----------------------------------------------------------------|
B |10----9-----3-----------3------------x---3-x---3---x-x-x-3---x-x-|
                                        
E |-----------------------------------------------------------------|
B |-----------------------------------------------------------------|
F#|-----------------------------------------------------------------|
B |9-----7-----10------x---10-----------10------10------10------10--|

E |-----------------------------------------------------------------|
B |-----------------------------------------------------------------|
F#|-----------------------------------------------------------------|
B |10----9-----3-----------3------------x---3-x---3---x-x-x-3---x-x-|
                                    
E |------------|
B |------------|
F#|------------|
B |9-----3-----|
          
Verse:                             
E |-----------------------------------------------------------------|
B |-----------------------------------------------------------------|
F#|-----------------------------------------------------------------|
B |2-----2-----2-----2-----2-----2--2-----2-----2-2-5-------4-------|

Second-Pre-Verse:(w/dist)
E |----------------|--------------------------------|
B |----------------|--------------------------------|
F#|----------------|--------------------------------|
B |----------------|3-3-3-3-3-3-3-3-x-x-x-3-3-3-3-3-|
                
Guitar Solo:

Bass comes in with this
E |-------------------------------------------------------------------|
B |-------------------------------------------------------------------|
F#|-------------------------------------------------------------------|
B |9-----9~-----------4-----4~----------5-----5~---------0~-----------|

E |-------------------------------------------------------------------|
B |---------------------------------------------------7-7-7-7-7-7-7-7-|
F#|-------------------------------------------------------------------|
B |9-----9----------4-----4----------5-----5--------------------------|
                                                 
Bridge:
E |------------------------------------------------------------------|
B |------------------------------------------------------------------|
F#|------------------------------------------------------------------|
B |--9--9--9-9-------7--7--7-7------5--5--5-5-----5-5--5--5-5-----5--|

E |-------------------------------------------------|
B |-------------------------------------------------|
F#|-------------------------------------------------|
B |--9--9--9-9-------7--7--7-7------5--5--5-5-----5-|

Outro:
E |-------------------------------------------------------------------|
B |-------------------------------------------------------------------|
F#|-------------------------------------------------------------------|
B |--2-----2-----2-----2-----2-----2--2-----2-----2-2-5-------4-------|
                        
E |-------------------------------------------------------------------|
B |-------------------------------------------------------------------|
F#|-------------------------------------------------------------------|
B |--2-----2-----2-----2-----2-----2-|2-----2-----2-2-5-------4-------|
Suggest correction
Give kudos to tab author, rate the tab!
1 2 3 4 5
comments
print report bad tab
guest
You may want to rate the tab now too:
select rating
Wanna post a correction for this tab? Suggest correction