Oops, an error
Loading. Please wait.

Rain Tab

version 1
version 1

Whole song

1,198 views 1 this week
no commentswrite comment
1 2 3 4 5
3 more votes to show rating
add to favorites
launch autoscroll
font size
0
reset
how to read this tab
guitar tuner
×
Best way to learn
"Rain"
Autoscroll
slow
fast
+/-
esc
set tempo
stop
40 Below Summer: Rain
Tabbed by 2Fisted
Tuning: Drop B

Intro
----------------------------------|
----------------------------------|
-13~--9~--------------------------|
-13~--7~--------------------------|
-11~--7~--------------------------|
-11~--7~--00----------------------|
          ..
Verse(clean) almost all base until the second half here:
----------9~---------9~-----------|
--------7~-------------7~---------|
----------------------------------|
----------------------------------|
----------------------------------|
-11~-7~-------11~-7~--------------|
Pre-Chorus(dist. with volume swell)
----------------------------------|
----------------------------------|
-6--6--6--6--6-6-6-6-6------------|
----------------------------------|
--4--4--4--4--4-4-4-4-4-----------|
----------------------------------|
Chorus(dist.)
----------------------------------------------|
----------------------------------------------|
-9-12/13-13--12--12--------13~--------13~-----|
-7-10/11-13--12--12--------13~--------13~-----|
-7-------11--10--10--------11~--------11~-----|
-7-------11----00---0-0-00-11~-0-0-00-11~-----|
               ..   . . ..     . . ..
Post Chorus(clean)
----------------------------------|
----------------------------------|
-4~-4~-4~-4~----------------------|
----------------------------------|
----------------------------------|
----------------------------------|
Interlude 1(dist.)Those are 10' not 1's and 0's.
----------------------------------|
----------------------------------|
------12~-------------------------|
-9h10-10~-/9-9~-9h10--------------|
-9h10-10~-/9-9~-9h10-1010-99-1010-|
-9h10-10~-/9-9~-9h10-1010-99-1010-|
                      ..  ..  ..
Interlude 2(dist)
------------------------------------------------------|
------------------------------------------------------|
------12~-----------------------------12~-------------|
-9h10-10~-/9-9~----4~-----------------10~-/9-9~----4~-|
-9h10-10~-/9-9~----4~-----------------10~-/9-9~----4~-|
-9h10-10~-/9-9~-00-4~-7h9p7-10p7-8p9--10~-/9-9~-00-4~-|
                ..                              ..
The outro is the introX4 and the verse repeated.
Suggest correction
Give kudos to tab author, rate the tab!
1 2 3 4 5
comments
print report bad tab
guest
You may want to rate the tab now too:
select rating
Wanna post a correction for this tab? Suggest correction