Oops, an error
Loading. Please wait.

Rope Tab

version 3
version 3

Whole song

4 views 1 this week
no commentswrite comment
1 2 3 4 5
3 more votes to show rating
add to favorites
launch autoscroll
font size
0
reset
how to read this tab
guitar tuner
Autoscroll
slow
fast
+/-
esc
set tempo
stop
Help us to improve Ultimate-Guitar.com Take our survey!
×
Author
Difficulty
Tuning
novice
B F# B E G# C#
 ----------------------------------------------------------------------------------------------

             SONG: Rope
             BAND: 40 Below Summer
            ALBUM: Invitation To The Dance

 ----------------------------------------------------------------------------------------------

        TUNING: Drop D and down 1 and 1/2 steps (B F# B E G# C#)

     Riff 1:
    C#|-------------------------------|
    G#|-------------------------------|
    E |-------------------------------|
    B |-0-0-0--7-7-7-8--3-3-3-3-5-5-5-|
    F#|-0-0-0--7-7-7-8--3-3-3-3-5-5-5-|
    B |-0-0-0--7-7-7-8--3-3-3-3-5-5-5-|

     Verse is just little parts of Riff 1 and then bits played on the high B (D when in standard)

     Riff 2:
    C#|------------------------------------|
    G#|------------------------------------|
    E |------------------------------------| PM=palm mute
    B |-0-2-2--0-2---0-2-0-2-2-2--0---3----|
    F#|-0-2-2--0-2---0-2-0-2-2-2--0---3----|
    B |-0-2-2--0-2---0-2-0-2-2-2--0---3----|
     PM - - -  -     - - - - - -

     Riff 3:
    C#|---|
    G#|-3-|
    E |-2-| volumn swell
    B |-0-|
    F#|---|
    B |---|

     Last times through chorus, don't play 2's and let all notes ring.
Suggest correction
Give kudos to tab author, rate the tab!
1 2 3 4 5
comments
print report bad tab
guest
You may want to rate the tab now too:
select rating
Wanna post a correction for this tab? Suggest correction