Oops, an error
Loading. Please wait.

155 tab

version 2
version 2

Whole song

Interactive

by +44
13,390 views 1 this week
2 commentsread comments
1 2 3 4 5
x 5
add to favorites
×
Save as Personal and add changes to this tab that will be seen only by you. Learn more ›
×
You can save this tab as Personal to edit and correct it or add notes. All changes will be seen only by you. Learn more »
launch autoscroll
font size
0
reset
how to read this tab
guitar tuner
edit
Autoscroll
slow
fast
+/-
esc
set tempo
stop
----------------------------------------------------------------------------
                             155 - Plus 44
----------------------------------------------------------------------------


 

Gtr I (E A D G B E)
Gtr II (E A D G B E)
Gtr III (E A D G B E)


 Intro
 Q=155
  F5
 4/4
  Gtr I
   E  E  E  E +H             +E   E  E  E +H
|-----------8-(8)----------|-(8)--------8-(8)----------|
|--------9-----------------|---------9-----------------|
|----10--------------------|-----10--------------------|
|--------------------------|---------------------------|
|--------------------------|---------------------------|
|--------------------------|---------------------------|
|
| Gtr II
|  E  E  E  E  E   E  E  E    E   E  E  E  E   E  E  E
|--------------------------|---------------------------|
|--------------------------|---------------------------|
|-10-10-10-10-10--10-10-10-|-10--10-10-10-10--10-10-10S|
|-10-10-10-10-10--10-10-10-|-10--10-10-10-10--10-10-10S|
|--8--8--8--8--8---8--8--8-|--8---8--8--8--8---8--8--8S|
|--------------------------|---------------------------|


  Db5
  +E   E E E +H          +E   E E E +H
|-(8)------9-(9)-------|-(9)------9-(9)---------|
|--------9-------------|--------9---------------|
|-----10---------------|-----10-----------------|
|----------------------|------------------------|
|----------------------|------------------------|
|----------------------|------------------------|
|
|  E   E E E  E  E E E    E   E E E  E  E E E
|----------------------|------------------------|
|----------------------|------------------------|
|--6---6-6-6--6--6-6-6-|--6---6-6-6--6--6-6-6S==|
|--6---6-6-6--6--6-6-6-|--6---6-6-6--6--6-6-6S==|
|--4---4-4-4--4--4-4-4-|--4---4-4-4--4--4-4-4S==|
|----------------------|------------------------|


  F5
  +E   E  E  E +H             +E   E  E  E +H
|-(9)--------8-(8)----------|-(8)--------8-(8)----------|
|---------9-----------------|---------9-----------------|
|-----10--------------------|-----10--------------------|
|---------------------------|---------------------------|
|---------------------------|---------------------------|
|---------------------------|---------------------------|
|
|  E   E  E  E  E   E  E  E    E   E  E  E  E   E  E  E
|---------------------------|---------------------------|
|---------------------------|---------------------------|
|-10--10-10-10-10--10-10-10-|-10--10-10-10-10--10-10-10S|
|-10--10-10-10-10--10-10-10-|-10--10-10-10-10--10-10-10S|
|--8---8--8--8--8---8--8--8-|--8---8--8--8--8---8--8--8S|
|---------------------------|---------------------------|


  Db5
  +E   E E E +H          +E   E E E +H
|-(8)------9-(9)-------|-(9)------9-(9)---------||
|--------9-------------|--------9---------------||
|-----10---------------|-----10-----------------||
|----------------------|------------------------||
|----------------------|------------------------||
|----------------------|------------------------||
|
|  E   E E E  E  E E E    E   E E E  E  E E E
|----------------------|------------------------||
|----------------------|------------------------||
|--6---6-6-6--6--6-6-6-|--6---6-6-6--6--6-6-6/--||
|--6---6-6-6--6--6-6-6-|--6---6-6-6--6--6-6-6S==||
|--4---4-4-4--4--4-4-4-|--4---4-4-4--4--4-4-4S==||
|----------------------|------------------------||


 Verse
  F5
   >
  +W                          W
|-(9)----------------------|-------------------------|
|--------------------------|-------------------------|
|--------------------------|-------------------------|
|--------------------------|-------------------------|
|--------------------------|-------------------------|
|--------------------------|-------------------------|
|
|  E   E  E  E  E  E  E  E    E  E  E  E  E  E  E  E
|--------------------------|-------------------------|
|--------------------------|-------------------------|
|--------------------------|-------------------------|
|-10--10-10-10-10-10-10-10-|-10-10-10-10-10-10-10-10-|
|--8---8--8--8--8--8--8--8-|--8--8--8--8--8--8--8--8-|
|--------------------------|-------------------------|


  Db5
   W                         W
|-------------------------|--------------------------|
|-------------------------|--------------------------|
|-------------------------|--------------------------|
|-------------------------|--------------------------|
|-------------------------|--------------------------|
|-------------------------|--------------------------|
|
|  E  E  E  E  E  E  E  E    E  E  E  E  E  E  E  E
|-------------------------|--------------------------|
|-------------------------|--------------------------|
|-------------------------|--------------------------|
|-------------------------|--------------------------|
|-11-11-11-11-11-11-11-11-|-11-11-11-11-11-11-11-11--|
|--9--9--9--9--9--9--9--9-|--9--9--9--9--9--9--9--9--|


  F5
  Gtr II
   E  E  E  E  E  E  E  E    E  E  E  E  E  E  E  E
|-------------------------|-------------------------|
|-------------------------|-------------------------|
|-------------------------|-------------------------|
|-10-10-10-10-10-10-10-10-|-10-10-10-10-10-10-10-10-|
|--8--8--8--8--8--8--8--8-|--8--8--8--8--8--8--8--8-|
|-------------------------|-------------------------|


  Eb5
  E E E E E E E E   E E E E E E E E
|-----------------|------------------|
|-----------------|------------------|
|-----------------|------------------|
|-8-8-8-8-8-8-8-8-|-8-8-8-8-8-8-8-8--|
|-6-6-6-6-6-6-6-6-|-6-6-6-6-6-6-6-6--|
|-----------------|------------------|


  F5
  Gtr I
   E  E  E  E +H             +E   E  Q     H
|-----------8-(8)----------|-(8)-----------8----------|
|--------9-----------------|---------9----------------|
|----10--------------------|-----10-------------------|
|--------------------------|--------------------------|
|--------------------------|--------------------------|
|--------------------------|--------------------------|
|
| Gtr II
|  E  E  E  E  E   E  E  E    E   E  E  E  E  E  E  E
|--------------------------|--------------------------|
|--------------------------|--------------------------|
|--------------------------|--------------------------|
|-10-10-10-10-10--10-10-10-|-10--10-10-10-10-10-10-10-|
|--8--8--8--8--8---8--8--8-|--8---8--8--8--8--8--8--8-|
|--------------------------|--------------------------|


  Db5
  +E   E  E  E +H             +E   E  E  E +H
|-(8)--------9-(9)----------|-(9)--------9-(9)-----------|
|---------9-----------------|---------9------------------|
|-----10--------------------|-----10---------------------|
|---------------------------|----------------------------|
|---------------------------|----------------------------|
|---------------------------|----------------------------|
|
|  E   E  E  E  E   E  E  E    E   E  E  E  E   E  E  E
|---------------------------|----------------------------|
|---------------------------|----------------------------|
|---------------------------|----------------------------|
|---------------------------|----------------------------|
|-11--11-11-11-11--11-11-11-|-11--11-11-11-11--11-11-11--|
|--9---9--9--9--9---9--9--9-|--9---9--9--9--9---9--9--9--|


  F5
  +E   E  E  E +H             +E   E  E  E +H
|-(9)--------8-(8)----------|-(8)--------8-(8)----------|
|---------9-----------------|---------9-----------------|
|-----10--------------------|-----10--------------------|
|---------------------------|---------------------------|
|---------------------------|---------------------------|
|---------------------------|---------------------------|
|
|  E   E  E  E  E   E  E  E    E   E  E  E  E   E  E  E
|---------------------------|---------------------------|
|---------------------------|---------------------------|
|---------------------------|---------------------------|
|-10--10-10-10-10--10-10-10-|-10--10-10-10-10--10-10-10-|
|--8---8--8--8--8---8--8--8-|--8---8--8--8--8---8--8--8-|
|---------------------------|---------------------------|


  Eb5
  +E  E E E +H          +E  E E E +H
|-(8)-----6-(6)-------|-(6)-----6-(6)--------||
|-------8-------------|-------8--------------||
|-----8---------------|-----8----------------||
|---------------------|----------------------||
|---------------------|----------------------||
|---------------------|----------------------||
|
|  E  E E E  E  E E E    E  E E E  E  E E E
|---------------------|----------------------||
|---------------------|----------------------||
|---------------------|----------------------||
|--8--8-8-8--8--8-8-8-|--8--8-8-8--8--8-8-8--||
|--6--6-6-6--6--6-6-6-|--6--6-6-6--6--6-6-6--||
|---------------------|----------------------||


 horus
  $
  Ab5
  +E   E  E  Q    E  E  E    +E   E  E  E  +H
|-(6)-------11---------11-|-(11)-------11-(11)-------|
|--------13---------13----|---------13---------------|
|-----13---------13-------|------13------------------|
|-------------------------|--------------------------|
|-------------------------|--------------------------|
|-------------------------|--------------------------|
|
|  E   E  E  E E  E  E  E     E   E  E  E   E  E E E
|-------------------------|--------------------------|
|-------------------------|--------------------------|
|-------------------------|--------------------------|
|--6---6--6--6-6--6--6--6-|---6---6--6--6---6--6-6-6-|
|--6---6--6--6-6--6--6--6-|---6---6--6--6---6--6-6-6-|
|--4---4--4--4-4--4--4--4-|---4---4--4--4---4--4-4-4-|


  Eb/G
   +E   E  E  Q    E  E  E    +E   E  E  E  +H
|-(11)-------11---------11-|-(11)-------11-(11)--------|
|---------11---------11----|---------11----------------|
|------12---------12-------|------12-------------------|
|--------------------------|---------------------------|
|--------------------------|---------------------------|
|--------------------------|---------------------------|
|
|   E   E  E  E E  E  E  E     E   E  E  E   E  E E E
|--------------------------|---------------------------|
|--------------------------|---------------------------|
|--------------------------|---------------------------|
|---5---5--5--5-5--5--5--5-|---5---5--5--5---5--5-5-5--|
|---6---6--6--6-6--6--6--6-|---6---6--6--6---6--6-6-6--|
|---3---3--3--3-3--3--3--3-|---3---3--3--3---3--3-3-3--|


  F5
   +E   E Q   H         +E   E E E +H
|-(11)--------8-------|-(8)------8-(8)-------|
|---------9-----------|--------9-------------|
|------10-------------|-----10---------------|
|---------------------|----------------------|
|---------------------|----------------------|
|---------------------|----------------------|
|
|   E   E E E E E E E    E   E E E  E  E E E
|---------------------|----------------------|
|---------------------|----------------------|
|---------------------|----------------------|
|---3---3-3-3-3-3-3-3-|--3---3-3-3--3--3-3-3-|
|---3---3-3-3-3-3-3-3-|--3---3-3-3--3--3-3-3-|
|---1---1-1-1-1-1-1-1-|--1---1-1-1--1--1-1-1-|


  Db5
  +E   E  E Q    E  E E   +E   E  E Q   E  E E
|-(8)-------------------|-----------------------|
|-----------9---------9-|-(9)-------9---9----9--|
|--------10--------10---|--------10-------10----|
|-----11--------11------|-----11----------------|
|-----------------------|-----------------------|
|-----------------------|-----------------------|
|
|  E   E  E E E  E  E E    E   E  E E E E  E E
|-----------------------|-----------------------|
|-----------------------|-----------------------|
|--6---6--6-6-6--6--6-6-|--6---6--6-6-6-6--6-6--|
|--6---6--6-6-6--6--6-6-|--6---6--6-6-6-6--6-6--|
|--4---4--4-4-4--4--4-4-|--4---4--4-4-4-4--4-4--|
|-----------------------|-----------------------|


  Ab5
  +E   E  E  Q    E  E  E    +E   E  E  E  +H
|-----------11---------11-|-(11)-------11-(11)-------|
|-(9)----13---------13----|---------13---------------|
|-----13---------13-------|------13------------------|
|-------------------------|--------------------------|
|-------------------------|--------------------------|
|-------------------------|--------------------------|
|
|  E   E  E  E E  E  E  E     E   E  E  E   E  E E E
|-------------------------|--------------------------|
|-------------------------|--------------------------|
|-------------------------|--------------------------|
|--6---6--6--6-6--6--6--6-|---6---6--6--6---6--6-6-6-|
|--6---6--6--6-6--6--6--6-|---6---6--6--6---6--6-6-6-|
|--4---4--4--4-4--4--4--4-|---4---4--4--4---4--4-4-4-|


  Eb/G
   +E   E  E  Q    E  E  E    +E   E  E  E  +H
|-(11)-------11---------11-|-(11)-------11-(11)--------|
|---------11---------11----|---------11----------------|
|------12---------12-------|------12-------------------|
|--------------------------|---------------------------|
|--------------------------|---------------------------|
|--------------------------|---------------------------|
|
|   E   E  E  E E  E  E  E     E   E  E  E   E  E E E
|--------------------------|---------------------------|
|--------------------------|---------------------------|
|--------------------------|---------------------------|
|---5---5--5--5-5--5--5--5-|---5---5--5--5---5--5-5-5--|
|---6---6--6--6-6--6--6--6-|---6---6--6--6---6--6-6-6--|
|---3---3--3--3-3--3--3--3-|---3---3--3--3---3--3-3-3--|


  F5
   +E   E Q   H         +E   E E E +H
|-(11)--------8-------|-(8)------8-(8)-------|
|---------9-----------|--------9-------------|
|------10-------------|-----10---------------|
|---------------------|----------------------|
|---------------------|----------------------|
|---------------------|----------------------|
|
|   E   E E E E E E E    E   E E E  E  E E E
|---------------------|----------------------|
|---------------------|----------------------|
|---------------------|----------------------|
|---3---3-3-3-3-3-3-3-|--3---3-3-3--3--3-3-3-|
|---3---3-3-3-3-3-3-3-|--3---3-3-3--3--3-3-3-|
|---1---1-1-1-1-1-1-1-|--1---1-1-1--1--1-1-1-|


                                  To Coda
  Db5                        Eb5
  +E   E  E Q    E  E E   +E E E Q   E E E
|-(8)-------------------|-------------------||
|-----------9---------9-|-(9)----8-------8--||
|--------10--------10---|------8-------8----||
|-----11--------11------|----8-------8------||
|-----------------------|-------------------||
|-----------------------|-------------------||
|
|  E   E  E E E  E  E E    E E E E E E E E
|-----------------------|-------------------||
|-----------------------|-------------------||
|--6---6--6-6-6--6--6-6-|--6s8-8-8-8-8-8-8--||
|--6---6--6-6-6--6--6-6-|--6s8-8-8-8-8-8-8--||
|--4---4--4-4-4--4--4-4-|--4s6-6-6-6-6-6-6--||
|-----------------------|-------------------||


 Pre-Verse
  F5
   >
   Q     Q     Q     Q       Q     Q     Q     Q
|-------------------------|-------------------------|
|--------9-----------9----|--------9-----------9----|
|-10----------10----------|-10----------10----------|
|-------------------------|-------------------------|
|-------------------------|-------------------------|
|-------------------------|-------------------------|
|
|  E  E  E  E  E  E  E  E    E  E  E  E  E  E  E  E
|-------------------------|-------------------------|
|-------------------------|-------------------------|
|-10-10-10-10-10-10-10-10-|-10-10-10-10-10-10-10-10S|
|-10-10-10-10-10-10-10-10-|-10-10-10-10-10-10-10-10S|
|--8--8--8--8--8--8--8--8-|--8--8--8--8--8--8--8--8S|
|-------------------------|-------------------------|


  Db5
  W                 W
|-----------------|-------------------|
|-----------------|-------------------|
|-----------------|-------------------|
|-----------------|-------------------|
|-----------------|-------------------|
|-----------------|-------------------|
|
| E E E E E E E E   E E E E E E E E
|-----------------|-------------------|
|-----------------|-------------------|
|-6-6-6-6-6-6-6-6-|-6-6-6-6-6-6-6-6S==|
|-6-6-6-6-6-6-6-6-|-6-6-6-6-6-6-6-6S==|
|-4-4-4-4-4-4-4-4-|-4-4-4-4-4-4-4-4S==|
|-----------------|-------------------|


  F5
  Gtr II
   E  E  E  E  E  E  E  E    E  E  E  E  E  E  E  E
|-------------------------|-------------------------|
|-------------------------|-------------------------|
|-10-10-10-10-10-10-10-10-|-10-10-10-10-10-10-10-10S|
|-10-10-10-10-10-10-10-10-|-10-10-10-10-10-10-10-10S|
|--8--8--8--8--8--8--8--8-|--8--8--8--8--8--8--8--8S|
|-------------------------|-------------------------|


  Db5
  E E E E E E E E   E E E E E E E E
|-----------------|------------------||
|-----------------|------------------||
|-6-6-6-6-6-6-6-6-|-6-6-6-6-6-6-6-6--||
|-6-6-6-6-6-6-6-6-|-6-6-6-6-6-6-6-6--||
|-4-4-4-4-4-4-4-4-|-4-4-4-4-4-4-4-4--||
|-----------------|------------------||


 Verse
  F5
   E  E  E  E  E  E  q     E  q   E  E  E  q
|-----------------------|---------------------|
|-----------------------|---------------------|
|-----------------------|---------------------|
|-10-10-10-10-10-10-10--|-10-10--10-10-10-10--|
|--8--8--8--8--8--8--8--|--8--8---8--8--8--8--|
|-----------------------|---------------------|


  Db5
   E  q   E  E  E  q     E  q   E  E  E  q
|---------------------|----------------------|
|---------------------|----------------------|
|---------------------|----------------------|
|---------------------|----------------------|
|-11-11--11-11-11-11--|-11-11--11-11-11-11---|
|--9--9---9--9--9--9--|--9--9---9--9--9--9---|


  F5                       Eb5
   Q  H.        W          E q  E E E q    E q  E E E q
|-------------|----------|---------------|----------------|
|-------------|----------|---------------|----------------|
|-------------|----------|---------------|----------------|
|-10----------|----------|-8-8--8-8-8-8--|-8-8--8-8-8-8---|
|--8----------|----------|-6-6--6-6-6-6--|-6-6--6-6-6-6---|
|-------------|----------|---------------|----------------|


  F5
  Gtr I
   E  E E  E +H           +E   E Q     H
|----------8-(8)--------|-(8)----------8--------|
|-------9---------------|--------9--------------|
|----10-----------------|-----10----------------|
|-----------------------|-----------------------|
|-----------------------|-----------------------|
|-----------------------|-----------------------|
|
| Gtr II
|  E  q    E  E   E  q     E   q    E  E  E  q
|-----------------------|-----------------------|
|-----------------------|-----------------------|
|-----------------------|-----------------------|
|-10-10---10-10--10-10--|-10--10---10-10-10-10--|
|--8--8----8--8---8--8--|--8---8----8--8--8--8--|
|-----------------------|-----------------------|


  Db5
  +E   E E  E +H           +E   E E  E +H
|-(8)-------9-(9)--------|-(9)-------9-(9)---------|
|--------9---------------|--------9----------------|
|-----10-----------------|-----10------------------|
|------------------------|-------------------------|
|------------------------|-------------------------|
|------------------------|-------------------------|
|
|  E   q    E  E   E  q     E   q    E  E   E  q
|------------------------|-------------------------|
|------------------------|-------------------------|
|------------------------|-------------------------|
|------------------------|-------------------------|
|-11--11---11-11--11-11--|-11--11---11-11--11-11---|
|--9---9----9--9---9--9--|--9---9----9--9---9--9---|


  F5
  +E   E E  E +H       +E   E E E +H
|-(9)-------8-(8)----|-(8)------8-(8)----|
|--------9-----------|--------9----------|
|-----10-------------|-----10------------|
|--------------------|-------------------|
|--------------------|-------------------|
|--------------------|-------------------|
|
|  Q     H.             W
|--------------------|-------------------|
|--------------------|-------------------|
|--------------------|-------------------|
|-10-----------------|-------------------|
|--8-----------------|-------------------|
|--------------------|-------------------|


                           D.S. al Coda
  Eb5
  +E  E E E +H         +E  E E E +H
|-(8)-----6-(6)------|-(6)-----6-(6)-------||
|-------8------------|-------8-------------||
|-----8--------------|-----8---------------||
|--------------------|---------------------||
|--------------------|---------------------||
|--------------------|---------------------||
|
|  E  q   E  E  E q     E  q   E  E  E q
|--------------------|---------------------||
|--------------------|---------------------||
|--------------------|---------------------||
|--8--8---8--8--8-8--|--8--8---8--8--8-8---||
|--6--6---6--6--6-6--|--6--6---6--6--6-6---||
|--------------------|---------------------||


 Interlude
  &
  F5
   E  E E E +H        +E   E E E +H
|---------8-(8)----|--(8)------8-(8)----|
|-------9----------|---------9----------|
|----10------------|------10------------|
|------------------|--------------------|
|------------------|--------------------|
|------------------|--------------------|
|
|  >
|  W                  +W
|------------------|--------------------|
|------------------|--------------------|
|-10---------------|-(10)---------------|
|-10---------------|-(10)---------------|
|--8---------------|--(8)---------------|
|------------------|--------------------|


   +E   E E E +H        +E   E E E +H
|--(8)------9-(9)----|--(9)------9-(9)----|
|---------9----------|---------9----------|
|------10------------|------10------------|
|--------------------|--------------------|
|--------------------|--------------------|
|--------------------|--------------------|
|
|  +W                   +W
|--------------------|--------------------|
|--------------------|--------------------|
|-(10)---------------|-(10)---------------|
|-(10)---------------|-(10)---------------|
|--(8)---------------|--(8)---------------|
|--------------------|--------------------|


  +E   E E E +H           +E   E E E +H
|-(9)------8-(8)--------|-(8)------8-(8)--------|
|--------9--------------|--------9--------------|
|-----10----------------|-----10----------------|
|-----------------------|-----------------------|
|-----------------------|-----------------------|
|-----------------------|-----------------------|
|
|  E   q   E  E   E  q     E   q   E  E   E  q
|-----------------------|-----------------------|
|-----------------------|-----------------------|
|-----------------------|-----------------------|
|-----10-----10--10-10--|-----10-----10--10-10--|
|------8------8---8--8--|------8------8---8--8--|
|-----------------------|-----------------------|


      Db5
  +E   E E E +H         +E   E E E +H
|-(8)------9-(9)------|-(9)------9-(9)-------||
|--------9------------|--------9-------------||
|-----10--------------|-----10---------------||
|---------------------|----------------------||
|---------------------|----------------------||
|---------------------|----------------------||
|
|  E   q   E  E  E q     E   q   E  E  E q
|---------------------|----------------------||
|---------------------|----------------------||
|---------------------|----------------------||
|------6------6--6-6--|------6------6--6-6---||
|------4------4--4-4--|------4------4--4-4---||
|---------------------|----------------------||


 Guitar Solo
  F5
   >
  +W                  +W                  W                 W
|-(9)---------------|-(9)---------------|-----------------|----------------|
|-------------------|-------------------|-----------------|----------------|
|-------------------|-------------------|-----------------|----------------|
|-------------------|-------------------|-----------------|----------------|
|-------------------|-------------------|-----------------|----------------|
|-------------------|-------------------|-----------------|----------------|
|
|  >
|  W                   W                  W                 W
|-------------------|-------------------|-----------------|----------------|
|-------------------|-------------------|-----------------|----------------|
|-------------------|-------------------|-----------------|----------------|
|-10----------------|-------------------|-----------------|----------------|
|--8----------------|-------------------|-----------------|----------------|
|-------------------|-------------------|-----------------|----------------|
|
| Gtr III
|  E  E E E E E E E    E  E E E E E E E   E E E E E E E E   E E E E E E E E
|-------------------|------------------|-----------------|-----------------|
|-------------------|------------------|-----------------|-----------------|
|-------5-----5-----|-8------6-----5---|-----5-----5-----|-6-----6-----5---|
|--6--6---6-6---6-6-|----6-6---6-6---6-|-6-6---6-6---6-6-|---6-6---6-6---6-|
|-------------------|------------------|-----------------|-----------------|
|-------------------|------------------|-----------------|-----------------|


  Gtr II
   >
   W                 W                 W                 W
|------------------|-----------------|-----------------|-----------------||
|------------------|-----------------|-----------------|-----------------||
|------------------|-----------------|-----------------|-----------------||
|-10---------------|-----------------|-----------------|-----------------||
|--8---------------|-----------------|-----------------|-----------------||
|------------------|-----------------|-----------------|-----------------||
|
| Gtr III
|  E E E E E E E E   E E E E E E E E   E E E E E E E E   E E E E E E Q
|------------------|-----------------|-----------------|-----------------||
|------------------|-----------------|-----------------|-----------------||
|------5-----5-----|-8-----6-----5---|-----8-----8-----|-8-----8-----5---||
|--6-6---6-6---6-6-|---6-6---6-6---6-|-6-6---6-6---6-6-|---6-6---6-6-----||
|------------------|-----------------|-----------------|-----------------||
|------------------|-----------------|-----------------|-----------------||


   Out-Chorus
    Ab5
    Gtr I
    E  E  E  Q    E  E  E    +E   E  E  E  +H
||----------11---------11-|-(11)-------11-(11)-------|
||o------13---------13----|---------13---------------|
||----13---------13-------|------13------------------|
||------------------------|--------------------------|
||o-----------------------|--------------------------|
||------------------------|--------------------------|
|
|   Gtr II
|   E  E  E  E E  E  E  E     E   E  E  E   E  E E E
||------------------------|--------------------------|
||o-----------------------|--------------------------|
||------------------------|--------------------------|
||--6--6--6--6-6--6--6--6-|---6---6--6--6---6--6-6-6-|
||o-6--6--6--6-6--6--6--6-|---6---6--6--6---6--6-6-6-|
||--4--4--4--4-4--4--4--4-|---4---4--4--4---4--4-4-4-|


  Eb/G
   +E   E  E  Q    E  E  E    +E   E  E  E  +H
|-(11)-------11---------11-|-(11)-------11-(11)-------|
|---------11---------11----|---------11---------------|
|------12---------12-------|------12------------------|
|--------------------------|--------------------------|
|--------------------------|--------------------------|
|--------------------------|--------------------------|
|
|   E   E  E  E E  E  E  E     E   E  E  E   E  E E E
|--------------------------|--------------------------|
|--------------------------|--------------------------|
|--------------------------|--------------------------|
|---5---5--5--5-5--5--5--5-|---5---5--5--5---5--5-5-5-|
|---6---6--6--6-6--6--6--6-|---6---6--6--6---6--6-6-6-|
|---3---3--3--3-3--3--3--3-|---3---3--3--3---3--3-3-3-|


  F5
   +E   E Q   H         +E   E E E +H
|-(11)--------8-------|-(8)------8-(8)-------|
|---------9-----------|--------9-------------|
|------10-------------|-----10---------------|
|---------------------|----------------------|
|---------------------|----------------------|
|---------------------|----------------------|
|
|   E   E E E E E E E    E   E E E  E  E E E
|---------------------|----------------------|
|---------------------|----------------------|
|---------------------|----------------------|
|---3---3-3-3-3-3-3-3-|--3---3-3-3--3--3-3-3-|
|---3---3-3-3-3-3-3-3-|--3---3-3-3--3--3-3-3-|
|---1---1-1-1-1-1-1-1-|--1---1-1-1--1--1-1-1-|


  Db5
  +E   E  E Q    E  E E   +E   E  E Q   E  E E
|-(8)-------------------|------------------------||
|-----------9---------9-|-(9)-------9---9----9--o||
|--------10--------10---|--------10-------10-----||
|-----11--------11------|-----11-----------------||
|-----------------------|-----------------------o||
|-----------------------|------------------------||
|
|  E   E  E E E  E  E E    E   E  E E E E  E E
|-----------------------|------------------------||
|-----------------------|-----------------------o||
|--6---6--6-6-6--6--6-6-|--6---6--6-6-6-6--6-6---||
|--6---6--6-6-6--6--6-6-|--6---6--6-6-6-6--6-6---||
|--4---4--4-4-4--4--4-4-|--4---4--4-4-4-4--4-4--o||
|-----------------------|------------------------||


   Outro
    Ab5
    E  E  E  E  +H           +E   E  E  E  +H
||----------11-(11)-------|-(11)-------11-(11)-------|
||o------13---------------|---------13---------------|
||----13------------------|------13------------------|
||------------------------|--------------------------|
||o-----------------------|--------------------------|
||------------------------|--------------------------|
|
|   E  E  E  E   E  E E E     E   E  E  E   E  E E E
||------------------------|--------------------------|
||o-----------------------|--------------------------|
||------------------------|--------------------------|
||--6--6--6--6---6--6-6-6-|---6---6--6--6---6--6-6-6-|
||o-6--6--6--6---6--6-6-6-|---6---6--6--6---6--6-6-6-|
||--4--4--4--4---4--4-4-4-|---4---4--4--4---4--4-4-4-|
|
|   Gtr III
|   E  E  E  E   E  E E E     E   E  E  E   E  E E E
||------------------------|--------------------------|
||o-----------------------|--------------------------|
||--------5---------5-----|---8---------6--------5---|
||--6--6-----6---6----6-6-|-------6--6------6--6---6-|
||o-----------------------|--------------------------|
||------------------------|--------------------------|


  Eb/G
  E  E  E  E  +H           +E   E  E  E  +H
|---------11-(11)-------|-(11)-------11-(11)-------|
|------11---------------|---------11---------------|
|---12------------------|------12------------------|
|-----------------------|--------------------------|
|-----------------------|--------------------------|
|-----------------------|--------------------------|
|
| E  E  E  E   E  E E E     E   E  E  E   E  E E E
|-----------------------|--------------------------|
|-----------------------|--------------------------|
|-----------------------|--------------------------|
|-5--5--5--5---5--5-5-5-|---5---5--5--5---5--5-5-5-|
|-6--6--6--6---6--6-6-6-|---6---6--6--6---6--6-6-6-|
|-3--3--3--3---3--3-3-3-|---3---3--3--3---3--3-3-3-|
|
| E  E  E  E   E  E E E     E   E  E  E   E  E E E
|-----------------------|--------------------------|
|-----------------------|--------------------------|
|-------5---------5-----|---6---------6--------5---|
|-6--6-----6---6----6-6-|-------6--6------6--6---6-|
|-----------------------|--------------------------|
|-----------------------|--------------------------|


  1.
  F5
   +E   E E E +H          +E   E E E +H
|-(11)------8-(8)-------|-(8)------8-(8)-------|
|---------9-------------|--------9-------------|
|------10---------------|-----10---------------|
|-----------------------|----------------------|
|-----------------------|----------------------|
|-----------------------|----------------------|
|
|   E   E E E  E  E E E    E   E E E  E  E E E
|-----------------------|----------------------|
|-----------------------|----------------------|
|-----------------------|----------------------|
|---3---3-3-3--3--3-3-3-|--3---3-3-3--3--3-3-3-|
|---3---3-3-3--3--3-3-3-|--3---3-3-3--3--3-3-3-|
|---1---1-1-1--1--1-1-1-|--1---1-1-1--1--1-1-1-|
|
|   E   E E E  E  E E E    E   E E E  E  E E E
|-----------------------|----------------------|
|-----------------------|----------------------|
|---------5-------5-----|--8-------6-------5---|
|---6---6---6--6----6-6-|------6-6----6--6---6-|
|-----------------------|----------------------|
|-----------------------|----------------------|


  Db5
  +E   E  E Q    E  E E   +E   E  E Q   E  E E
|-(8)-------------------|------------------------||
|-----------9---------9-|-(9)-------9---9----9--o||
|--------10--------10---|--------10-------10-----||
|-----11--------11------|-----11-----------------||
|-----------------------|-----------------------o||
|-----------------------|------------------------||
|
|  E   E  E E E  E  E E    E   E  E E E E  E E
|-----------------------|------------------------||
|-----------------------|-----------------------o||
|--6---6--6-6-6--6--6-6-|--6---6--6-6-6-6--6-6---||
|--6---6--6-6-6--6--6-6-|--6---6--6-6-6-6--6-6---||
|--4---4--4-4-4--4--4-4-|--4---4--4-4-4-4--4-4--o||
|-----------------------|------------------------||
|
|  E   E  E E E  E  E E    E   E  E E E E  Q
|-----------------------|------------------------||
|-----------------------|-----------------------o||
|---------8------8------|--8--------8------5-----||
|--6---6----6-6-----6-6-|------6--6---6-6--------||
|-----------------------|-----------------------o||
|-----------------------|------------------------||


  2.
  F5
    E   E E E +H          +E   E E E +H
|-(11)------8-(8)-------|-(8)------8-(8)-------|
|---------9-------------|--------9-------------|
|------10---------------|-----10---------------|
|-----------------------|----------------------|
|-----------------------|----------------------|
|-----------------------|----------------------|
|
|   E   E E E  E  E E E    E   E E E  E  E E E
|-----------------------|----------------------|
|-----------------------|----------------------|
|-----------------------|----------------------|
|---3---3-3-3--3--3-3-3-|--3---3-3-3--3--3-3-3-|
|---3---3-3-3--3--3-3-3-|--3---3-3-3--3--3-3-3-|
|---1---1-1-1--1--1-1-1-|--1---1-1-1--1--1-1-1-|
|
|   E   E E E  E  E E E    E   E E E  E  E E E
|-----------------------|----------------------|
|-----------------------|----------------------|
|---------5-------5-----|--8-------6-------5---|
|---6---6---6--6----6-6-|------6-6----6--6---6-|
|-----------------------|----------------------|
|-----------------------|----------------------|


  Db5                        Eb5
  +E   E  E Q    E  E E   +E  E  E Q   E  E E
|-(8)-------------------|----------------------|
|-----------9---------9-|-(9)------9---9----9--|
|--------10--------10---|-------10-------10----|
|-----11--------11------|----11----------------|
|-----------------------|----------------------|
|-----------------------|----------------------|
|
|  E   E  E E E  E  E E    E  E  E E E E  E E
|-----------------------|----------------------|
|-----------------------|----------------------|
|--6---6--6-6-6--6--6-6-|--6s=8--8-8-8-8--8-8--|
|--6---6--6-6-6--6--6-6-|--6s=8--8-8-8-8--8-8--|
|--4---4--4-4-4--4--4-4-|--4s=6--6-6-6-6--6-6--|
|-----------------------|----------------------|
|
|  E   E  E E E  E  E E    E  E  E E E E  Q
|-----------------------|----------------------|
|-----------------------|----------------------|
|---------8------8------|--8-------8------5----|
|--6---6----6-6-----6-6-|-----6--6---6-6-------|
|-----------------------|----------------------|
|-----------------------|----------------------|


  F5
   W           +W              +W            +W
|-----------|-------------||--------------|----------||
|--9--------|--(9)--------||o--(9)--------|--(9)----o||
|-----------|-------------||--------------|----------||
|-----------|-------------||--------------|----------||
|-----------|-------------||o-------------|---------o||
|-----------|-------------||--------------|----------||
|
|  W           +W              +W            +W
|-----------|-------------||--------------|----------||
|-----------|-------------||o-------------|---------o||
|-10--------|-(10)--------||--(10)--------|-(10)-----||
|-10--------|-(10)--------||--(10)--------|-(10)-----||
|--8--------|--(8)--------||o--(8)--------|--(8)----o||
|-----------|-------------||--------------|----------||
|
|  W           +W              +W            +W
|-----------|-------------||--------------|----------||
|-----------|-------------||o-------------|---------o||
|-----------|-------------||--------------|----------||
|--6--------|--(6)--------||---(6)--------|--(6)-----||
|-----------|-------------||o-------------|---------o||
|-----------|-------------||--------------|----------||




----------------------------------------------------------------------------


Duration Legend
---------------
W - whole; H - half; Q - quarter; E - 8th; S - 16th; T - 32nd; X - 64th; a - acciaccatura
+ - note tied to previous; . - note dotted; .. - note double dotted
Uncapitalized letters represent notes that are staccato (1/2 duration)
Irregular groupings are notated above the duration line
Duration letters will always appear directly above the note/fret number it represents the
duration for.  Duration letters with no fret number below them represent rests.  Multi-
bar rests are notated in the form Wxn, where n is the number of bars to rest for.  Low
melody durations appear below the staff

Tablature Legend
----------------
 h   - hammer-on
 p   - pull-off
 b   - bend
 pb  - pre-bend
 r   - bend release (if no number after the r, then release immediately)
 /\  - slide into or out of (from/to "nowhere")
 s   - legato slide
 S   - shift slide
 - natural harmonic
[n]  - artificial harmonic
n(n) - tapped harmonic
 ~   - vibrato
 tr  - trill
 T   - tap
 TP  - trem. picking
 PM  - palm muting
\n/  - tremolo bar dip; n = amount to dip
 \n  - tremolo bar down
 n/  - tremolo bar up
/n\  - tremolo bar inverted dip
 =   - hold bend; also acts as connecting device for hammers/pulls
 <> - volume swell (louder/softer)
 x   - on rhythm slash represents muted slash
 o   - on rhythm slash represents single note slash

Misc Legend
-----------
 |  - bar
||  - double bar
||o - repeat start
o|| - repeat end
*|  - double bar (ending)
 :  - bar (freetime)
 $  - Segno
 &  - Coda
Tempo markers -  = BPM(8/16=s8/s16), where s8 = swing 8ths, s16 = swing 16ths

            
            
Suggest correction
Creating personal tab
Creating personal tab
You can edit any tab online and save it as your Personal.

You can edit, replace or remove any tab part or add personal notes – all changes will be seen only by you.

Personal tabs can be accessed anytime from any device, even offline.
Learn more »
comments
print report bad tab
2 comments total.
0 reply
SundaySt 61 Jul 01, 2007 05:03 AM

u make tabs look so scientific! nice tab! LOL

0 reply
nickcoo147 10 Aug 25, 2007 07:54 AM

nice tab..this song rocks =)

guest
You may want to rate the tab now too:
select rating
Wanna post a correction for this tab? Suggest correction