Oops, an error
Loading. Please wait.

155 bass

version 3
version 3
by +44
3,084 views 3 this week
3 commentsread comments
1 2 3 4 5
2 more votes to show rating
add to favorites
×
Save as Personal and add changes to this tab that will be seen only by you. Learn more ›
×
You can save this tab as Personal to edit and correct it or add notes. All changes will be seen only by you. Learn more »
launch autoscroll
font size
0
reset
guitar tuner
edit
Autoscroll
slow
fast
+/-
esc
set tempo
stop
Difficulty
intermediate
This is a %100 bass tab of +44's song entitled "155" i figured it out by ear, and i also 
the video on youtube of +44 playing this in a Acoustic Version live so....here ya go!

Intro x2
G----------------|
D----------------|
A-8(x16)-4(x16)--|
E----------------|

Verse x2
G------------------------------|
D------------------------------|
A-8(x16)-4(x16)-8(x16)-6(x16)--|
E------------------------------|

Chorus
G-------------------------------------------------------------------------------|
D-------------------------------------------------------------------------------|
A------------------------------4(x16)------------------------------4(x8)-6(x8)--|
E-4(x16)-3(x16)-1(x16)-----------4(x16)-3(x16)-1(x16)---------------------------|

Intro x2
G----------------|
D----------------|
A-8(x16)-4(x16)--|
E----------------|

Verse2 x2
G------------------------------------------------------------------|
D------------------------------------------------------------------|
A-88-8888-88-8888-44-4444-44-4444-8---------------66-6666-66-6666--|
E------------------------------------------------------------------|

Chorus
G---------------------------------------------------------------------------------------|
D---------------------------------------------------------------------------------------|
A------------------------------4(x16)------------------------------4(x8)-6(x8)-----(8)--|
E-4(x16)-3(x16)-1(x16)-----------4(x16)-3(x16)-1(x16)-----------------------------------|

Theres a short pause right here

Bridge- (this may look wrong because Mark doesnt go with the Chord change, but its %100 
the acoustic 155 video on youtube of them, u can see it perfectly....)

 \/tens,not 1 & 0...\/
G---------------------------------------------------------------------------------------|
D-10~101010-10~101010-6~6-6-6--6~6-6-6--------------------------------------------------|
A--8~8-8-8---8~8-8-8--4~4-4-4--4~4-4-4--------------------------------------------------|
E---------------------------------------------------------------------------------------|


                             \/--thirteens--\/
G--------------------------------------------------------------------------------|
D--------------------------------------------------------------------------------|
A-------------------44444444-1313131313131313-------------------44444444-11111111|
E-11111111-333-4444---------------------------11111111-333-4444------------------|

Chorus x2
G---------------------------------------------------------------------------------------|
D---------------------------------------------------------------------------------------|
A------------------------------4(x16)------------------------------4(x8)-6(x8)-----(8)--|
E-4(x16)-3(x16)-1(x16)-----------4(x16)-3(x16)-1(x16)-----------------------------------|
Suggest correction
Creating personal tab
Creating personal tab
You can edit any tab online and save it as your Personal.

You can edit, replace or remove any tab part or add personal notes – all changes will be seen only by you.

Personal tabs can be accessed anytime from any device, even offline.
Learn more »
Give kudos to tab author, rate the tab!
1 2 3 4 5
comments
print report bad tab
3 comments total.
0 reply
rastabass 308 Mar 10, 2008 03:46 PM

how is this intermediate

pure novice

0 reply
poop182 10 Aug 13, 2009 01:35 AM

Yea, I just messed up when I was selecting it. Wow, I made this tab soooo long ago!

0 reply
aruffolo12 88 Feb 06, 2011 08:07 PM

sexy song love it

guest
Wanna post a correction for this tab? Suggest correction