Oops, an error
Loading. Please wait.

155 bass

version 5
version 5
by +44
8,052 views 3 this week
6 commentsread comments
1 2 3 4 5
x 21
add to favorites
×
Save as Personal and add changes to this tab that will be seen only by you. Learn more ›
×
You can save this tab as Personal to edit and correct it or add notes. All changes will be seen only by you. Learn more »
launch autoscroll
font size
0
reset
guitar tuner
edit
Autoscroll
slow
fast
+/-
esc
set tempo
stop
Intro x2
G----------------|
D----------------|
A-8(x16)-4(x16)--|
E----------------|

Verse x2
G------------------------------|
D------------------------------|
A-8(x16)-4(x16)-8(x16)-6(x16)--|
E------------------------------|

Choirs
G-------------------------------------------------------------------------------|
D-------------------------------------------------------------------------------|
A------------------------------4(x16)------------------------------4(x8)-6(x8)--|
E-4(x16)-3(x16)-1(x16)-----------4(x16)-3(x16)-1(x16)---------------------------|

Intro x2
G----------------|
D----------------|
A-8(x16)-4(x16)--|
E----------------|

Verse2 x2
G------------------------------------------------------------------|
D------------------------------------------------------------------|
A-88-8888-88-8888-44-4444-44-4444-8---------------66-6666-66-6666--|
E------------------------------------------------------------------|

Choirs
G---------------------------------------------------------------------------------------|
D---------------------------------------------------------------------------------------|
A------------------------------4(x16)------------------------------4(x8)-6(x8)-----(8)--|
E-4(x16)-3(x16)-1(x16)-----------4(x16)-3(x16)-1(x16)-----------------------------------|

Theres a short pause right here

Bridge
G-------------------------------------------------------------------------|
D-------------------------------------------------------------------------|
A-88-8888-88-8888-44-4444-44-4444-8(x16)-4(x8)-6(x8)--8(x16)-4(x8)-6(x8)--|
E-------------------------------------------------------------------------|

Choirs x2
G---------------------------------------------------------------------------------------|
D---------------------------------------------------------------------------------------|
A------------------------------4(x16)------------------------------4(x8)-6(x8)-----(8)--|
E-4(x16)-3(x16)-1(x16)-----------4(x16)-3(x16)-1(x16)-----------------------------------|

And thats it
I hope u like the changes i can see how my first one was alittle hard to read
Thanx for the comments and let me know what ya think of the new version
Plus 44 rocks
I still miss Blink though

            
            
Suggest correction
Creating personal tab
Creating personal tab
You can edit any tab online and save it as your Personal.

You can edit, replace or remove any tab part or add personal notes – all changes will be seen only by you.

Personal tabs can be accessed anytime from any device, even offline.
Learn more »
comments
print report bad tab
6 comments total. Showing first comments.
-2 reply
roguebassist 176 Jan 17, 2007 02:04 PM

perfect, lovely. Yeah, I miss Blink, but 44 and A&A are better than Blink as one. not as funny lol. Yeah and, the last time on the chorus, it's 3 times, not 2. Great job! 5*'s

+3 reply
Lukifer1113 10 Feb 23, 2007 11:46 AM

if u think that +44 and AVA are better than blink as one then you obviously dont really miss blink

0 reply
YCROCKER19 10 Apr 14, 2007 06:38 PM

naw man last time on chorus its 2, awesome tab

guest
Wanna post a correction for this tab? Suggest correction