Oops, an error
Loading. Please wait.

155 bass

version 6
version 6
by +44
295 views 1 this week
2 commentsread comments
1 2 3 4 5
2 more votes to show rating
add to favorites
×
Save as Personal and add changes to this tab that will be seen only by you. Learn more ›
×
You can save this tab as Personal to edit and correct it or add notes. All changes will be seen only by you. Learn more »
launch autoscroll
font size
0
reset
guitar tuner
edit
Autoscroll
slow
fast
+/-
esc
set tempo
stop
Author
Difficulty
Tabbers playing skills
Band: +44
Song: 155
Album: When Your Heart Stops Beating
Track: 05
Year: 2006
Tuning: E Standard


Intro
G|-----------------------------------------------------|
D|-1010101010101010-1010101010101010-66666666-66666666-|
A|--8-8-8-8-8-8-8-8--8-8-8-8-8-8-8-8-44444444-44444444-| x2
E|-----------------------------------------------------|

Verse x2
G|-----------------------------------------------------|
D|-1010101010101010-1010101010101010-66666666-66666666-|
A|--8-8-8-8-8-8-8-8--8-8-8-8-8-8-8-8-44444444-44444444-|
E|-----------------------------------------------------|

G|-----------------------------------------------------|
D|-1010101010101010-1010101010101010-88888888-88888888-|
A|--8-8-8-8-8-8-8-8--8-8-8-8-8-8-8-8-66666666-66666666-|
E|-----------------------------------------------------|

Chorus
G|-------------------------------------------------------------------------|
D|-------------------------------------------------------------------------|
A|-------------------------------------------------------44444444-44444444-| 
E|-44444444-44444444-33333333-33333333-11111111-11111111-------------------|

G|-------------------------------------------------------------------------|
D|-------------------------------------------------------------------------|
A|-------------------------------------------------------44444444-66666666-| 
E|-44444444-44444444-33333333-33333333-11111111-11111111-------------------|

Post Chorus/Pre Verse
G|-----------------------------------------------------|
D|-1010101010101010-1010101010101010-66666666-66666666-|
A|--8-8-8-8-8-8-8-8--8-8-8-8-8-8-8-8-44444444-44444444-| x2
E|-----------------------------------------------------|

Verse 2 x2
G|----------------------------------------------------|
D|-1010--101010----1010--101010----66--666---66--666--|
A|--8-8---8-8-8-----8-8---8-8-8----44--444---44--444--|
E|----------------------------------------------------|

G|----------------------------------------------------|
D|-10~-----------------------------88--888---88--888--|
A|--8~-----------------------------66--666---66--666--|
E|----------------------------------------------------|

Chorus
G|-------------------------------------------------------------------------|
D|-------------------------------------------------------------------------|
A|-------------------------------------------------------44444444-44444444-| 
E|-44444444-44444444-33333333-33333333-11111111-11111111-------------------|

G|-------------------------------------------------------------------------|
D|-------------------------------------------------------------------------|
A|-------------------------------------------------------44444444-66666666-| 
E|-44444444-44444444-33333333-33333333-11111111-11111111-------------------|

Bridge
G|----------------------------------------------------|
D|-10~------------------------------------------------|
A|--8~------------------------------------------------|
E|----------------------------------------------------|

G|----------------------------------------------------|
D|-1010--10101010--1010--10101010--66--6666--66--6666-|
A|--8-8---8-8-8-8---8-8---8-8-8-8--44--4444--44--4444-|
E|----------------------------------------------------|

G|-------------------------------------|
D|-------------------------------------|
A|-------------------44444444-11111111-| x2
E|-11111111-33334444-------------------|

Chorus
G|-------------------------------------------------------------------------|
D|-------------------------------------------------------------------------|
A|-------------------------------------------------------44444444-44444444-| x3
E|-44444444-44444444-33333333-33333333-11111111-11111111-------------------|

G|-------------------------------------------------------------------------|
D|-------------------------------------------------------------------------|
A|-------------------------------------------------------44444444-66666666-| 
E|-44444444-44444444-33333333-33333333-11111111-11111111-------------------|

Outro
G|----------------------------------------------------|
D|-10~------------------------------------------------|
A|--8~------------------------------------------------|
E|----------------------------------------------------|

            
            
Suggest correction
Creating personal tab
Creating personal tab
You can edit any tab online and save it as your Personal.

You can edit, replace or remove any tab part or add personal notes – all changes will be seen only by you.

Personal tabs can be accessed anytime from any device, even offline.
Learn more »
Give kudos to tab author, rate the tab!
1 2 3 4 5
comments
print report bad tab
2 comments total.
0 reply
zjcl1 114 Mar 21, 2012 10:06 PM

good tab, but i don't think you need to play the D string at all in this song.

0 reply
Vampire 255 407 Mar 22, 2012 03:22 AM

You don't need to use the D string but I prefer to play it with the chords and I believe Mark uses the chords when they play it acoustic.

guest
You may want to rate the tab now too:
select rating
Wanna post a correction for this tab? Suggest correction