Oops, an error
Loading. Please wait.

Baby Come On bass

version 2
version 2

Whole song

by +44
2,653 views 1 this week
6 commentsread comments
1 2 3 4 5
x 5
add to favorites
×
Save as Personal and add changes to this tab that will be seen only by you. Learn more ›
×
You can save this tab as Personal to edit and correct it or add notes. All changes will be seen only by you. Learn more »
launch autoscroll
font size
0
reset
guitar tuner
edit
Autoscroll
slow
fast
+/-
esc
set tempo
stop
Difficulty
intermediate
                              Baby Come On                   tabed by matias
                                                                     simon 
                                                                 argentina  
                                   (+44)




intro/verse
g------11------11-----11-----11------11------11| \
d-12-12---12-12--12-12--12-12---12-12---12-12--|  \
a----------------------------------------------|  |
e----------------------------------------------|  |
                                                  |
                                                  | all x 2
g-----7-----7-----7----7-----7-----7|             |
d-5-5---5-5---5-5--5-5---5-5---5-5--|             |
a-----------------------------------|             |
e-----------------------------------|             /
                                                 / 

bridge

g------11------11-----7-----7-|
d-12-12---12-12---5-5---5-5---|
a-----------------------------|
e-----------------------------|


intro/verse
g------11------11-----11-----11------11------11| \
d-12-12---12-12--12-12--12-12---12-12---12-12--|  \
a----------------------------------------------|  |
e----------------------------------------------|  |
                                                  |
                                                  | all x 2
g-----7-----7-----7----7-----7-----7|             |
d-5-5---5-5---5-5--5-5---5-5---5-5--|             |
a-----------------------------------|             |
e-----------------------------------|             /
                                                 / 
chorus
g------------------------------------------------------------------| \
d------------------------------------------------------------------| | 
a-----------------------------------2-2-2-2-2-2-2-2-2--------------| |x2
e-5-5-5-5-5-5-5-5-5-3-3-3-3-3-3-3-3-------------------3-3-3-3-3-3-3| |
                                                                     /
g------------------------------------------------|
d------------------------------------------------|
a------------------------------------------------|
e-5-5-5-5-5-5-5-5-5-3-3-3-3-3-3-3-3-3-3-3-3-3-3-3|


bridge 2
g------11------11------11------11------11-----11|
d-12-12---12-12---12-12---12-12---12-12--12-12--|
a-----------------------------------------------| x2
e-----------------------------------------------|

intro/verse
g------11------11-----11-----11------11------11| \
d-12-12---12-12--12-12--12-12---12-12---12-12--|  \
a----------------------------------------------|  |
e----------------------------------------------|  |
                                                  |
                                                  | all x 2
g-----7-----7-----7----7-----7-----7|             |
d-5-5---5-5---5-5--5-5---5-5---5-5--|             |
a-----------------------------------|             |
e-----------------------------------|             /
                                                 / 

bridge

g------11------11-----7-----7-|
d-12-12---12-12---5-5---5-5---|
a-----------------------------|
e-----------------------------|


intro/verse
g------11------11-----11-----11------11------11| \
d-12-12---12-12--12-12--12-12---12-12---12-12--|  \
a----------------------------------------------|  |
e----------------------------------------------|  |
                                                  |
                                                  | all x 2
g-----7-----7-----7----7-----7-----7|             |
d-5-5---5-5---5-5--5-5---5-5---5-5--|             |
a-----------------------------------|             |
e-----------------------------------|             /
                                                 / 
chorus
g------------------------------------------------------------------| \
d------------------------------------------------------------------| | 
a-----------------------------------2-2-2-2-2-2-2-2-2--------------| |x2
e-5-5-5-5-5-5-5-5-5-3-3-3-3-3-3-3-3-------------------3-3-3-3-3-3-3| |
                                                                     /
g------------------------------------------------|
d------------------------------------------------|
a------------------------------------------------|
e-5-5-5-5-5-5-5-5-5-3-3-3-3-3-3-3-3-3-3-3-3-3-3-3|


only guitar for bit and then

chorus/end
g------------------------------------------------------------------| \
d------------------------------------------------------------------| | 
a-----------------------------------2-2-2-2-2-2-2-2-2--------------| |x4
e-5-5-5-5-5-5-5-5-5-3-3-3-3-3-3-3-3-------------------3-3-3-3-3-3-3| |
                                                                     /
g------------------------------------------------|
d------------------------------------------------|
a------------------------------------------------|
e-5-5-5-5-5-5-5-5-5-3-3-3-3-3-3-3-3-3-3-3-3-3-3-3|






thats all friens im sure its 100% correct so just enjoy it please rate it !!!!

            
            
Suggest correction
Creating personal tab
Creating personal tab
You can edit any tab online and save it as your Personal.

You can edit, replace or remove any tab part or add personal notes – all changes will be seen only by you.

Personal tabs can be accessed anytime from any device, even offline.
Learn more »
comments
print report bad tab
6 comments total. Showing first comments.
0 reply
catchy phrase 92 Dec 14, 2006 05:05 PM

there is quite obviously no bass in the first verse. watch their AOL sessions.

0 reply
bestbodyboarder 31 Dec 19, 2006 01:26 PM

ya its true, there is no bass in the first verse (check it out at http://44disasters.com/?side=media_livevideo, and u can download the aol sessions)

0 reply
un_stairway 72 Feb 08, 2007 09:09 PM

THERE IS NO BASS IN THE 1ST VERSE

guest
Wanna post a correction for this tab? Suggest correction