Oops, an error
Loading. Please wait.

Baby Come On bass

version 3
version 3

Whole song

by +44
7,827 views 21 this week
no commentswrite comment
1 2 3 4 5
x 9
add to favorites
×
Save as Personal and add changes to this tab that will be seen only by you. Learn more ›
×
You can save this tab as Personal to edit and correct it or add notes. All changes will be seen only by you. Learn more »
launch autoscroll
font size
0
reset
guitar tuner
edit
Autoscroll
slow
fast
+/-
esc
set tempo
stop
Author
Difficulty
~~ = Ring Out
~  = Slide


Intro: [No Words, No Bass]

Verse One: [She's a pretty girl. She's always falling down...]

|-------------------|-------------------|
|-------------------|-------------------|
|-5~----5~----------|-5~----5~----------|
|----3~----3~-5~-3~-|----3~----3~-3~----|

Chorus: [Quit crying your eyes out. Quit crying your eyes out...]

|------------------------------------|------------------------------------|
|------------------------------------|------------------------------------|
|-0000000-----------2222222----------|-0000000-----------2222222----------|
|---------333333333---------33333333-|---------333333333---------33333333-|

Chorus: [Quit crying your eyes out, Baby.]

|------------------|-----|
|------------------|-----|
|-0000000----------|-5~~-|
|---------33333333-|-----|

Bridge: [No Words, No Bass]

Verse Two: [And she said, "I think we're running out of alcohal...]

|-----------------------------------|-----------------------------------|
|-----------------------------------|-----------------------------------|
|-5555555555555555------------------|-5555555555555555------------------|
|------------------3333333333333333-|------------------3333333333333333-|

Verse Two: [But they won't ever remember.]

|-------------------|
|-------------------|
|-0000000-----------|
|---------333333333-|

Verse Two: [So please take me far away, before I melt into the ground..."]

|-----------------------------------|-----------------------------------|
|-----------------------------------|-----------------------------------|
|-5555555555555555------------------|-5555555555555555------------------|
|------------------3333333333333333-|------------------3333333333333333-|

Chorus: [Quit crying your eyes out. Quit crying your eyes out...]

|------------------------------------|------------------------------------|
|------------------------------------|------------------------------------|
|-0000000-----------2222222----------|-0000000-----------2222222----------|
|---------333333333---------33333333-|---------333333333---------33333333-|

Chorus: [Quit crying your eyes out, Baby.]

|------------------|-----|
|------------------|-----|
|-0000000----------|-5~~-|
|---------33333333-|-----|

Bridge: [No words, No bass for first half.]

|---------------------|------------------------|
|---------------------|------------------------|
|-5555-------222222~3-|-5555-------2222--------|
|------55555----------|------55555------33333--|

Chorus: [Quit crying your eyes out. Quit crying your eyes out...]

|-------------------------------------|---------------------------------------|
|-------------------------------------|---------------------------------------|
|-00000000----------22222222----------|-00000000----------22222222------------|
|----------33333333----------33333333-|----------33333333----------33333333---|

Chorus: [Quit crying your eyes out. Isn't there something familiar...]

|-------------------------------------|---------------------------------------|
|-------------------------------------|---------------------------------------|
|-00000000----------22222222----------|-00000000----------22222222------------|
|----------33333333----------33333333-|----------33333333----------33333333---|

Chorus: [So quit crying your eyes out, Baby.]

|----------------------------|-----|
|----------------------------|-----|
|-00000000-------------------|-5~~-|
|----------33333333333333333-|-----|


Note: I've only showed the amount of times you need to hit the note, the way it is 
has been left for you to find out.

            
            
Suggest correction
Creating personal tab
Creating personal tab
You can edit any tab online and save it as your Personal.

You can edit, replace or remove any tab part or add personal notes – all changes will be seen only by you.

Personal tabs can be accessed anytime from any device, even offline.
Learn more »
comments
print report bad tab
guest
You may want to rate the tab now too:
select rating
Wanna post a correction for this tab? Suggest correction