Oops, an error
Loading. Please wait.

Baby Come On tab

version 3
version 3
by +44
41,281 views 9 this week
14 commentsread comments
1 2 3 4 5
x 28
add to favorites
×
Save as Personal and add changes to this tab that will be seen only by you. Learn more ›
×
You can save this tab as Personal to edit and correct it or add notes. All changes will be seen only by you. Learn more »
launch autoscroll
font size
0
reset
how to read this tab
guitar tuner
edit
Autoscroll
slow
fast
+/-
esc
set tempo
stop
Title:Baby Come On
Artist:+44

intro
e|14-------------14--------14---------------|
b|---15--17--12-----15--------15--17--12----|
g|---------------------14-----------------12|
d|------------------------------------------|
a|------------------------------------------|
E|------------------------------------------|

verse
e|------------------------------------------------------|
b|------------------------------------------------------|
g|------------------------------------------------------|
d|----4-----4---4------4-----4--------------------------|
a|5-5---5-5---5----5-5---5-5---5-5---5-5---5---5-5---5-5|
E|---------------------------------3-----3---3-----3----|

verse (continued)
e|--------------------------------|
b|--------------------------------|
g|--------------------------------|2x
d|--------------------------------| dont play ,verse (continued),
a|----7-----7----------5-----5----| the secong time
E|5-5---5-5---5-5--3-3---3-3---3-3|

chorus
guitar I
e|-----------------------------------------------|
b|-----------------------------------------------|
g|-----------------------------------------------|3x
d|7-7-7-7-7-7-5-5-5-5-5-5-9-9-9-9-9-9-5-5-5-5-5-5|
a|7-7-7-7-7-7-5-5-5-5-5-5-9-9-9-9-9-9-5-5-5-5-5-5|
E|5-5-5-5-5-5-3-3-3-3-3-3-7-7-7-7-7-7-3-3-3-3-3-3|

chorus
guitar II
e|14-----------------------14-------------|
b|---15------------------------15---------|
g|---------------------------------14-----|3x
d|----------------------------------------|
a|----------------------------------------|
E|----------------------------------------|

verse II
guitar I
e|------------------------------------------------------|
b|------------------------------------------------------|
g|------------------------------------------------------|
d|----4-----4---4------4-----4--------------------------|
a|5-5---5-5---5----5-5---5-5---5-5---5-5---5---5-5---5-5|
E|---------------------------------3-----3---3-----3----|

verse (continued)
e|--------------------------------|
b|--------------------------------|
g|--------------------------------|2x
d|--------------------------------| dont play ,verse (continued),
a|----7-----7----------5-----5----| the secong time
E|5-5---5-5---5-5--3-3---3-3---3-3|

verse II
guitar II
e|----------------------------------------------------------|
b|----------------------------------------------------------|
g|----0-----0---0------0-7-7-7-7-7-7-6-6-6-6-4-4-4-4-4-4-4-4|(dont play the 
d|-----------------------x-x-x-x-x-x-x-x-x-x-x-x-x-x-x-x-x-x| open notes or 
a|-----------------------5-5-5-5-5-5-4-4-4-4-2-2-2-2-2-2-2-2| the last 2 
E|----------------------------------------------------------| notes the  
                                                              second time in
verse II                                                      the verse 
guitar II (continued)                                         part)
e|----------------------------------------------|
b|----------------------------------------------|
g|7-7-7-7-7-7-6-6-6\9/4-4-4-4-4-4-4-4--7~--7~-7~|
d|x-x-x-x-x-x-x-x-x\x/x-x-x-x-x-x-x-x--7~--5~-7~|
a|5-5-5-5-5-5-4-4-4\7/2-2-2-2-2-2-2-2--5~--5~-5~|
E|----------------------------------------------|

bridge
e|---------------------------|
b|---------------------------|
g|7-7-7-7-6-6-6-7-7-7-7-7-7-7|2x
d|x-x-x-x-x-x-x-x-x-x-x-x-x-x|
a|5-5-5-5-5-5-5-7-7-7-7-5-5-5|
E|---------------------------|

bridge
guitar I
e|---------------------------------------|
b|---------------------------------------|
g|7-7-7-7-6-6-6-7-7-7-7-7-7-7-7-7-7-7-7-7|
d|x-x-x-x-x-x-x-x-x-x-x-x-x-x-x-x-x-x-x-x|
a|5-5-5-5-5-5-5-7-7-7-7-5-5-5-5-5-5-5-5-5|
E|---------------------------------------|

bridge
guitar II
e|---------------------------------------|
b|---------------------------------------|
g|7-7-7-7-6-6-6-7-7-7-7-7-7-7-7-7-7-7-7-7|
d|7-7-7-7-7-7-7-7-7-7-7-7-7-7-7-7-7-7-7-7|
a|5-5-5-5-5-5-5-7-7-7-7-5-5-5-5-5-5-5-5-5|
E|---------------------------------------|

questions or comments please e-mail me at x-X_vengeance_X-x@hotmail.com
Suggest correction
Creating personal tab
Creating personal tab
You can edit any tab online and save it as your Personal.

You can edit, replace or remove any tab part or add personal notes – all changes will be seen only by you.

Personal tabs can be accessed anytime from any device, even offline.
Learn more »
comments
print report bad tab
14 comments total. Showing first comments.
0 reply
*Jordie1* 10 Jan 12, 2007 07:21 PM

WOW!!! THIS IS BY FAR THE BEST TAB IVE SEEN OF THIS SONG...GREAT WORK.... THE OTHERS DONT EVEN COME CLOSE!

0 reply
zache57 110 Feb 23, 2007 04:15 PM

i think the intro is harmonics around the 7th fret but other than that its good

0 reply
SundaySt 61 Apr 02, 2007 09:59 PM

yup nice tab..but im a little confused as to which is better..this version or the acoustic one (its the one w/ the highest rating)..hahaha..

guest
You may want to rate the tab now too:
select rating
Wanna post a correction for this tab? Suggest correction