Oops, an error
Loading. Please wait.

Cliff Diving bass

version 1
version 1

Whole song

by +44
5,211 views 1 this week
3 commentsread comments
1 2 3 4 5
x 10
add to favorites
×
Save as Personal and add changes to this tab that will be seen only by you. Learn more ›
×
You can save this tab as Personal to edit and correct it or add notes. All changes will be seen only by you. Learn more »
launch autoscroll
font size
0
reset
guitar tuner
edit
Autoscroll
slow
fast
+/-
esc
set tempo
stop
Author
Difficulty
-------------------------------------------------------------------------------
			     Cliff Diving By Plus 44
-------------------------------------------------------------------------------
Tabbed By: aaron
e-mail: aaronelbur@gmail.com


G|---------------------------------------------------------------------------|
D|---------------------------------------------------------------------------|
A|----------------222222233333333------------------3333333333333333----------|
E|-33333333333333------------------0000000000000000--------------------------|

G|---------------------------------------------------------------------------|
D|---------------------------------------------------------------------------|
A|----------------222222233333333------------------3333333333333333----------|
E|-33333333333333------------------0000000000000000--------------------------|

G|---------------------------------------------------------------------------|
D|---------------------------------------------------------------------------|
A|----------------2222222222222222------------------3333333333333333---------|
E|-33333333333333------------------0000000000000000--------------------------|

G|---------------------------------------------------------------------------|
D|---------------------------------------------------------------------------|
A|----------------2222222222222222------------------33333334h5555555---------|
E|-33333333333333------------------0000000000000000--------------------------|

G|---------------------------------------------------------------------------|
D|---------------------------------------------------------------------------|
A|-3---------3-------3-------------------------------------------------------|
E|---33-00-----33-00---33-00-555555555---------------------------------------|

G|---------------------------------------------------------------------------|
D|---------------------------------------------------------------------------|
A|----------------222222233333333------------------3333333333333333----------|
E|-33333333333333------------------0000000000000000--------------------------|

G|---------------------------------------------------------------------------|
D|---------------------------------------------------------------------------|
A|----------------2222222222222222------------------3333333333333333---------|
E|-33333333333333------------------0000000000000000--------------------------|

G|---------------------------------------------------------------------------|
D|---------------------------------------------------------------------------|
A|----------------2222222222222222------------------33333334h5555555---------|
E|-33333333333333------------------0000000000000000--------------------------|

G|---------------------------------------------------------------------------|
D|---------------------------------------------------------------------------|
A|-3---------3-------3-------------------------------------------------------|
E|---33-00-----33-00---33-00-555555555---------------------------------------|

G|---------------------------------------------------------------------------|
D|---------------------------------------------------------------------------|
A|-33-------33-------33------------------------------------------------------|
E|----33-00----33-00----33-00-555555555--------------------------------------|

G|---------------------------------------------------------------------------|
D|---------------------------------------------------------------------------|
A|---------------------------33333333--------------------------33333333------|
E|-3333333333333333-00000000----------3333333333333333-00000000--------------|

G|---------------------------------------------------------------------------|
D|---------------------------------------------------------------------------|
A|---------------------------33333333----------------------------------------|
E|-3333333333333333-00000000----------333333333333333-00000000---------------|

G|---------------------------------------------------------------------------|
D|---------------------------------------------------------------------------|
A|-3---------3-------3-------------------------------------------------------|
E|---33-00-----33-00---33-00-555555555---------------------------------------|

G|---------------------------------------------------------------------------|
D|---------------------------------------------------------------------------|
A|-33-------33-------33------------------------------------------------------|
E|----33-00----33-00----33-00-555555555--------------------------------------|

G|---------------------------------------------------------------------------|
D|---------------------------------------------------------------------------|
A|---------------------------33333333--------------------------33333333------|
E|-3333333333333333-00000000----------3333333333333333-00000000--------------|

G|---------------------------------------------------------------------------|
D|---------------------------------------------------------------------------|
A|---------------------------33333333--------------------------33333333------|
E|-3333333333333333-00000000----------3333333333333333-00000000--------------|

G|---------------------------------------------------------------------------|
D|---------------------------------------------------------------------------|
A|---------------------------33333333--------------------------33333333------|
E|-3333333333333333-00000000----------3333333333333333-00000000--------------|

G|---------------------------------------------------------------------------|
D|---------------------------------------------------------------------------|
A|---------------------------33333333--------------------------33333333------|
E|-3333333333333333-00000000----------3333333333333333-00000000--------------|




| /  slide up
| \  slide down
| h  hammer-on
| p  pull-off
| ~  vibrato
| +  harmonic
| x  Mute note
===============================================================================
Suggest correction
Creating personal tab
Creating personal tab
You can edit any tab online and save it as your Personal.

You can edit, replace or remove any tab part or add personal notes – all changes will be seen only by you.

Personal tabs can be accessed anytime from any device, even offline.
Learn more »
comments
print report bad tab
3 comments total.
0 reply
nicklopeke 31 Dec 30, 2006 03:35 PM

5 stars all the way dude

0 reply
obeng432 72 Feb 06, 2007 07:47 PM

slide goes to from 3 to 15 right before the chorus

0 reply
MorgzVaughan 10 Feb 13, 2007 08:25 AM

sweet thats rad dude!

guest
You may want to rate the tab now too:
select rating
Wanna post a correction for this tab? Suggest correction