Oops, an error
Loading. Please wait.

Cliff Diving tab

version 1
version 1
by +44
10,399 views 3 this week
7 commentsread comments
1 2 3 4 5
x 17
add to favorites
×
Save as Personal and add changes to this tab that will be seen only by you. Learn more ›
×
You can save this tab as Personal to edit and correct it or add notes. All changes will be seen only by you. Learn more »
launch autoscroll
font size
0
reset
how to read this tab
guitar tuner
edit
Autoscroll
slow
fast
+/-
esc
set tempo
stop
Author
----------------------------------------------------------------------------
			     Cliff diving - Plus 44
----------------------------------------------------------------------------

Intro
Guitar 1
e-------------------------------------------------------|
B-------------------------------------------------------|
G-------4-----------5-----------------------------------|
D-5-----4-8x--2-----5-8x--------------------------------|
A-5-8x--2-----2-8x--3-----------------------------------|
E-3-----------0-----------------------------------------|

Guitar 2
e-------------------------------------------------------|
B--8-x8--7-5-3-5-x8--3-5-1------------------------------| play 2x.
G-------------------------------------------------------|
D-------------------------------------------------------|
A-------------------------------------------------------|
E-------------------------------------------------------|

vers 1.
e-------------------------------------------------------|
B-------------------------------------------------------|
G-------------------------------------------------------|
D-5-----4-----2-----10----------------------------------|
A-5-8x--4-8x--2-8x--10-8x-------------------------------|
E-3-----2-----0------8----------------------------------|

Chorus
e-------------------------------------------------------|
B-------------------------------------------------------|
G-5-----------------------------------------------------|
D-5-1x--5-----2-----------------------------------------|
A-3-----5-2x--2-1x--------------------------------------|
E-------3-----0-----------------------------------------|

Vers 2.
e-------------------------------------------------------|
B-------------------------------------------------------|
G-------------------------------------------------------|
D-5-----4-----2-----10----------------------------------|
A-5-8x--4-8x--2-8x--10-8x-------------------------------|
E-3-----2-----0------8----------------------------------|

Last Chorus
e-------------------------------------------------------|
B-------------------------------------------------------|
G-5-----------------------------------------------------|
D-5-1x--5-----2-----------------------------------------|
A-3-----5-2x--2-1x--------------------------------------|
E-------3-----0-----------------------------------------|

Guitar 2.
e-------------------------------------------------------|
B--10-x3--12-6x--7-3x--8---10-----10------8-----8-------| 
G------------------------------7------7-----7----7------| Play 2x
D-------------------------------------------------------|
A-------------------------------------------------------|
E-------------------------------------------------------|


----------------------------------------------------------------------------
			           The - End
----------------------------------------------------------------------------

            
            
Suggest correction
Creating personal tab
Creating personal tab
You can edit any tab online and save it as your Personal.

You can edit, replace or remove any tab part or add personal notes – all changes will be seen only by you.

Personal tabs can be accessed anytime from any device, even offline.
Learn more »
comments
print report bad tab
7 comments total. Showing first comments.
0 reply
italynlprkn 30 Oct 26, 2006 04:23 PM

pretty good....not perfect though.

in the verse..instead of goin to an F# it goes to a B

and your missing some guitar parts..but other than that its good.

0 reply
guitarded5 10 Oct 28, 2006 11:24 AM

Half of these tabs are for the bass...

0 reply
Thien 10 Oct 29, 2006 05:31 AM

omg pro ty

guest
You may want to rate the tab now too:
select rating
Wanna post a correction for this tab? Suggest correction