Oops, an error
Loading. Please wait.

Cliff Diving tab

version 3
version 3
by +44
2,138 views 1 this week
3 commentsread comments
1 2 3 4 5
x 6
add to favorites
×
Save as Personal and add changes to this tab that will be seen only by you. Learn more ›
×
You can save this tab as Personal to edit and correct it or add notes. All changes will be seen only by you. Learn more »
launch autoscroll
font size
0
reset
how to read this tab
guitar tuner
edit
Autoscroll
slow
fast
+/-
esc
set tempo
stop
Difficulty
intermediate
--------------------------------------------------------
                  (+44) - CLIFF DIVING
--------------------------------------------------------
Artist: (+44)
Song: Cliff diving
Album: When your heart stops beating
Tabber: Fabrizio Bonafè

So... this is the tab. I hope it's right... 
It sounds very well. P.S.: Craig and Shane are crazy!

Intro (OO:OO)
Guitar 1

e----------------------------I
B----------------------------I
G--------444444------555555--I
D--555555444444222222555555--I
A--555555222222222222333333--I
E--333333------OOOOOO--------I

Guitar 2

e--------------------------------------------------------------------------I
B--------------------------------------------------------------------------I
G--16------14-----12-----11-----12------11-----12-----9------14-----16-----I
D--xx-x8---xx-x6--xx-x8---x-x3--xx-x14---x-x3--xx-x3--x-x14--xx-x1--xx-x1--I
A--14------12-----1O------9-----1O-------9-----1O-----7------12-----14-----I
E--------------------------------------------------------------------------I

-repeat the intro 2 times

Verse (OO:24)

Guitar 1

e----------------------------I
B----------------------------I
G--------444444------555555--I
D--555555444444222222555555--I
A--555555222222222222333333--I
E--333333------OOOOOO--------I

Chorus (OO:49)

Guitar 1

e---------------------------I
B---------------------------I
G---------------------------I
D--5-5-5-2-222------777777--I
A--5-5-5-2-222--x3--777777--I
E--3-3-3-O-OOO------555555--I

(O1:O1) -Now repeat intro once.

(O1:13) -Now repeat verse 2 times.

(O1:38) -Now repeat chorus once. 

Interlude (O1:5O)

Guitar 1

e----------------------------------I
B----------------------------------I
G--555555--------------------------I
D--555555555555222222------777777--I
A--333333555555222222--x3--777777--I
E--------333333OOOOOO------555555--I

Guitar 2

e-----------I
B-----------I
G--12-------I
D--xx--x2O--I
A--1O-------I
E-----------I

-repeat this once.

Solo (O2:O4)

Guitar 1

e------------------------------I
B------------------------------I
G--14-----16-----11-----12-----I
D--xx-x3--xx-x6---x-x3--xx-x4--I
A--12-----14------9-----1O-----I
E------------------------------I

Guitar 2

first part
e---------------------------I
B---------------------------I
G--14----14----12----12-----I
D-----12----12----12----12--I
A---------------------------I
E---------------------------I

-repeat this 2 times

second part
e------------------------------I
B------------------------------I
G--14-x3--16-x6--11-x3--12-x4--I
D------------------------------I
A------------------------------I
E------------------------------I

-repeat this 2 times

-then repeat the first part once.

(O2:28) -Chorus once.

(O2:39) -Interlude.

(O2:51) -Solo.

the end!
I saw (+44) when they played this song...
it was very fun...
P.P.S.: TRAVIS BARKER THE BEST!!!!!!!!!!!!! 

Bye (^-^) 
Suggest correction
Creating personal tab
Creating personal tab
You can edit any tab online and save it as your Personal.

You can edit, replace or remove any tab part or add personal notes – all changes will be seen only by you.

Personal tabs can be accessed anytime from any device, even offline.
Learn more »
comments
print report bad tab
3 comments total.
0 reply
yogui 52 Dec 17, 2006 01:27 PM

best tab here by far!

0 reply
willythekid 123 Dec 18, 2006 03:45 AM

there are two guitars the whole song

0 reply
Blnkone82rulz 240 Jan 21, 2007 03:28 PM

a lot of parts are wrong

guest
Wanna post a correction for this tab? Suggest correction