Oops, an error
Loading. Please wait.

Cliff Diving tab

version 6
version 6
by +44
8,155 views 6 this week
2 commentsread comments
1 2 3 4 5
x 18
add to favorites
×
Save as Personal and add changes to this tab that will be seen only by you. Learn more ›
×
You can save this tab as Personal to edit and correct it or add notes. All changes will be seen only by you. Learn more »
launch autoscroll
font size
0
reset
how to read this tab
guitar tuner
edit
Autoscroll
slow
fast
+/-
esc
set tempo
stop
Author
Difficulty
Artist: +44
Song: Cliff Diving
Tuning: Standard EADGBe

Another good +44 song
Quick note: 2 guitars

-----------------------------------------------------------------------------
Intro:
-----------------------------------------------------------------------------

+Guitar 1+
-7777777777777777-55555555-3333333-3333-3333-3333-|
-8888888888888888-77777777-5555555-3333-5555-1111-|
--------------------------------------------------|
--------------------------------------------------|X2
--------------------------------------------------|
--------------------------------------------------|

+Guitar 2+
------------------------------------------------------|
------------------------------------------------------|
------------------------------------------------------|
------------------4444444444444444----------55555555--|X2
-5555555555555555-2222222222222222-22222222-33333333--|
-3333333333333333------------------00000000-----------|

-----------------------------------------------------------------------------
Verse:
-----------------------------------------------------------------------------

+Guitar 1+
------------------------------------------------------------------|
------------------------------------------------------------------|
------------------------------------------------------------------|
------------------------------------------------------------------|X2
----------------2222222222222222-----------------3333333333333333-|
3333333333333333----------------0000000000000000------------------|

-----------------------------------------------------------------------------
Chorus:
-----------------------------------------------------------------------------

+Both Guitars+
------------------------------|
------------------------------|
-5------------------22222222--|
-5-5-5-22-222222-X3-22222222--|
-3-5-5-22-222222----00000000--|
---3-3-00-000000--------------|

-----------------------------------------------------------------------------
Intro:
-----------------------------------------------------------------------------

+Guitar 1+
-7777777777777777-55555555-3333333-3333-3333-3333-|
-8888888888888888-77777777-5555555-3333-5555-1111-|
--------------------------------------------------|
--------------------------------------------------|
--------------------------------------------------|
--------------------------------------------------|

+Guitar 2+
------------------------------------------------------|
------------------------------------------------------|
------------------------------------------------------|
------------------4444444444444444----------55555555--|
-5555555555555555-2222222222222222-22222222-33333333--|
-3333333333333333------------------00000000-----------|

-----------------------------------------------------------------------------
Verse:
-----------------------------------------------------------------------------

+Guitar 1+
------------------------------------------------------------------|
------------------------------------------------------------------|
------------------------------------------------------------------|
------------------------------------------------------------------|X2
----------------2222222222222222-----------------3333333333333333-|
3333333333333333----------------0000000000000000------------------|

-----------------------------------------------------------------------------
Chorus:
-----------------------------------------------------------------------------

+Guitar 1+
------------------------------\- |
-------------------------------- |
-5------------------22222222---- |
-5-5-5-22-222222-X3-22222222---- |X2
-3-5-5-22-222222----00000000---- |
---3-3-00-000000---------------- |

+Guitar 2+
(come in while guitar one does the whole thing for the 2nd time)
-777777777777777777777777----|
-888888888888888888888888----|
-----------------------------|
-----------------------------|(just keep playing chord until
-----------------------------|  guitar 1 is done playing the
-----------------------------|  chorus for the 2nd time)

-----------------------------------------------------------------------------
Interlude:
-----------------------------------------------------------------------------

+Guitar 1+
-------------------|
-------------------|
-------------------|
-777-99999-444/5---|X6
-------------------|
-------------------|

+Guitar 2+
-5---5---3---3---5---5---3---3----|
---3---3---3---3---3---3---3---3--|
----------------------------------|
----------------------------------|
----------------------------------|
----------------------------------|

-555-77777-222/3--|
------------------|
------------------|
------------------|X2
------------------|
------------------|

-5---5---3---3---5---5---3---3----7777777-10//-|
---3---3---3---3---3---3---3---3--8888888--8//-|
-----------------------------------------------|
-----------------------------------------------|
-----------------------------------------------|
-----------------------------------------------|

-----------------------------------------------------------------------------
Chorus:
-----------------------------------------------------------------------------

+Guitar 1+
------------------------------\- |
-------------------------------- |
-5------------------22222222---- |
-5-5-5-22-222222-X3-22222222---- |X2
-3-5-5-22-222222----00000000---- |
---3-3-00-000000---------------- |

+Guitar 2+
(come in while guitar one does the whole thing for the 2nd time)
-777777777777777777777777----|
-888888888888888888888888----|
-----------------------------|
-----------------------------|(just keep playing chord until
-----------------------------|  guitar 1 is done playing the
-----------------------------|  chorus for the 2nd time)

-----------------------------------------------------------------------------
Outro:
-----------------------------------------------------------------------------

+Guitar 1+
--------------------------------------|
--------------------------------------|
--------------------------------------|
---------------------------55555555---|
-5555555555555555-22222222-33333333---| keep playing till end
-3333333333333333-00000000------------|

+Guitar 2+
(play whole part till end)
-5---5---3---3---5---5---3---3----|
---3---3---3---3---3---3---3---3--|
----------------------------------|
----------------------------------|
----------------------------------|
----------------------------------|

-555-77777-222/3--|
------------------|
------------------|
------------------|X2
------------------|
------------------|

-5---5---3---3---5---5---3---3----|
---3---3---3---3---3---3---3---3--|
----------------------------------|
----------------------------------|
----------------------------------|
----------------------------------|


-----------------------------------------------------------------------------
The End
-----------------------------------------------------------------------------
Suggest correction
Creating personal tab
Creating personal tab
You can edit any tab online and save it as your Personal.

You can edit, replace or remove any tab part or add personal notes – all changes will be seen only by you.

Personal tabs can be accessed anytime from any device, even offline.
Learn more »
comments
print report bad tab
2 comments total.
0 reply
rhcpfan27 119 Dec 22, 2006 03:55 PM

woot woot

0 reply
*Jordie1* 10 Feb 17, 2007 11:59 PM

stacks good=))))

guest
You may want to rate the tab now too:
select rating
Wanna post a correction for this tab? Suggest correction