Oops, an error
Loading. Please wait.

Cliff Diving tab

version 7
version 7
by +44
970 views 9 this week
3 commentsread comments
1 2 3 4 5
x 5
add to favorites
×
Save as Personal and add changes to this tab that will be seen only by you. Learn more ›
×
You can save this tab as Personal to edit and correct it or add notes. All changes will be seen only by you. Learn more »
launch autoscroll
font size
0
reset
how to read this tab
guitar tuner
edit
Autoscroll
slow
fast
+/-
esc
set tempo
stop
Author
Difficulty
Artist: (+44)
Song: Cliff Diving
Tuning: Standard

I'm pretty sure I got all of this right...
I spent a lot of time listening to the song and watching the videos...
if you have any questions or comments (Aside from commenting on here) you can hit me up 
my myspace www.myspace.com/boss61607

Guitar 1: Shane Gallagher
Guitar 2: Craig Fairbaugh

x= How many time's played
X= Sudden stop
/= Slide

Intro

Guitar 1
(0:00~0:12)
e:------------------------------------------------------------------|
B:-12------10------10------8------8------6------8------8------6-----|
G:-12------11-------9------7------9------5------7------9------5-----|
D:----x16-----x8------x8-----x3-----x3-----x10----x3-----x3-----x10-|
A:------------------------------------------------------------------|
E:------------------------------------------------------------------|
(0:12~0:25)
e:-----------------------------------------------------------------------|
B:-12------10------10------8------8------6------8------8------6------12~-|
G:-12------11-------9------7------9------5------7------9------5------12~-|
D:----x16-----x8------x8-----x3-----x3-----x10----x3-----x3-----x10------|
A:-----------------------------------------------------------------------|
E:-----------------------------------------------------------------------|

Guitar 2:
(0:00~0:12)
e:---------------------------------------|
B:---------------------------------------|
G:-----------4-------------------5-------|
D:-5--x16----4--x16----2--x16----5--x16--|
A:-5---------2---------2---------3-------|
E:-3-------------------0-----------------|
(0:12~0:25)
e:---------------------------------------|
B:---------------------------------------|
G:-----------4-------------------5-------|
D:-5--x16----4--x16----2--x16----5--x16--|
A:-5---------2---------2---------3-------|
E:-3-------------------0-----------------|


Verse 1:

Guitar 2:
e:------------------------------------------------------------------|
B:------------------------------------------------------------------|
G:------------------------------------------------------------------|
D:------------------------------------------------------------------|
A:----------------------------------2-2-2-2-2-2-2-2-2-2-2-2-2-2-2-2-|
E:-3-3-3-3-3-3-3-3-3-3-3-3-3-3-3-3----------------------------------|
      Silly girl, I think I got a | From late nights spent driving
    thing for you                 | in this stolen car

e:------------------------------------------------------------------|
B:------------------------------------------------------------------|
G:------------------------------------------------------------------|
D:------------------------------------------------------------------|
A:----------------------------------3-3-3-3-3-3-3-3-3-3-3-3-3-3-3-3-|
E:-0-0-0-0-0-0-0-0-0-0-0-0-0-0-0-0----------------------------------|
      The years we wasted living  | Haven't broken us so far
   in this desert town

e:------------------------------------------------------------------|
B:------------------------------------------------------------------|
G:------------------------------------------------------------------|
D:------------------------------------------------------------------|
A:----------------------------------2-2-2-2-2-2-2-2-2-2-2-2-2-2-2-2-|
E:-3-3-3-3-3-3-3-3-3-3-3-3-3-3-3-3----------------------------------|
      Hot afternoons we climbed   | Breathed deep and jumped into
   up to the neighbors house      | a waiting sky

e:------------------------------------------------------------------|
B:------------------------------------------------------------------|
G:------------------------------------------------------------------|
D:------------------------------------------------------------------|
A:----------------------------------3-3-3-3-3-3-3-3-3-3-3-3-3-3-3-3-|
E:-0-0-0-0-0-0-0-0-0-0-0-0-0-0-0-0----------------------------------|
      Our bare feet were framed   | I felt the future in your eyes
   on the horizon

Chorus 1:


Both guitars:
e:----------------------------|
B:----------------------------|
G:-5--------------------------|
D:-5--5--5--2-2--2-2--2-2-2-2-|
A:-3--5--5--2-2--2-2--2-2-2-2-|
E:----3--3--0-0--0-0--0-0-0-0-|
                 It was the promise of summer

e:----------------------------|
B:----------------------------|
G:-5--------------------------|
D:-5--5--5--2-2--2-2--2-2-2-2-|
A:-3--5--5--2-2--2-2--2-2-2-2-|
E:----3--3--0-0--0-0--0-0-0-0-|
                 We sealed it with a kiss

e:----------------------------|
B:----------------------------|
G:-5--------------------------|
D:-5--5--5--2-2--2-2--2-2-2-2-|
A:-3--5--5--2-2--2-2--2-2-2-2-|
E:----3--3--0-0--0-0--0-0-0-0-|
                 This time I'll do things proper

e:------------------X-|
B:------------------X-|
G:-2-2-2-2-2-2-2-2----|2X
D:-2-2-2-2-2-2-2-2----|2X
A:-0-0-0-0-0-0-0-0----|0X
E:------------------X-|
                       How did it get to this?


Repeat Intro:

Guitar 1:
e:-----------------------------------------------------------------------|
B:-12------10------10------8------8------6------8------8------6------12~-|
G:-12------11-------9------7------9------5------7------9------5------12~-|
D:----x16-----x8------x8-----x3-----x3-----x10----x3-----x3-----x10------|
A:-----------------------------------------------------------------------|
E:-----------------------------------------------------------------------|

Guitar 2:
e:---------------------------------------|
B:---------------------------------------|
G:-----------4-------------------5-------|
D:-5--x16----4--x16----2--x16----5--x16--|
A:-5---------2---------2---------3-------|
E:-3-------------------0-----------------|


Verse 2:

Guitar 2:
e:------------------------------------------------------------------|
B:------------------------------------------------------------------|
G:------------------------------------------------------------------|
D:----------------------------------4-4-4-4-4-4-4-4-4-4-4-4-4-4-4-4-|
A:-5-5-5-5-5-5-5-5-5-5-5-5-5-5-5-5--2-2-2-2-2-2-2-2-2-2-2-2-2-2-2-2-|
E:-3-3-3-3-3-3-3-3-3-3-3-3-3-3-3-3----------------------------------|
      Dear you, tonight let's get | Because now I barely can
   ahead of ourselves               remember

e:------------------------------------------------------------------|
B:------------------------------------------------------------------|
G:------------------------------------------------------------------|
D:----------------------------------5-5-5-5-5-5-5-5-5-5-5-5-5-5-5-5-|
A:-2-2-2-2-2-2-2-2-2-2-2-2-2-2-2-2--3-3-3-3-3-3-3-3-3-3-3-3-3-3-3-3-|
E:-0-0-0-0-0-0-0-0-0-0-0-0-0-0-0-0----------------------------------|
      Yesterday stretched on for  | Tomorrow feels like forever
   so long


Chorus 2:

Both guitars:
e:----------------------------|
B:----------------------------|
G:-5--------------------------|
D:-5--5--5--2-2--2-2--2-2-2-2-|
A:-3--5--5--2-2--2-2--2-2-2-2-|
E:----3--3--0-0--0-0--0-0-0-0-|
                 It was the promise of summer

e:----------------------------|
B:----------------------------|
G:-5--------------------------|
D:-5--5--5--2-2--2-2--2-2-2-2-|
A:-3--5--5--2-2--2-2--2-2-2-2-|
E:----3--3--0-0--0-0--0-0-0-0-|
                 We sealed it with a kiss

e:----------------------------|
B:----------------------------|
G:-5--------------------------|
D:-5--5--5--2-2--2-2--2-2-2-2-|
A:-3--5--5--2-2--2-2--2-2-2-2-|
E:----3--3--0-0--0-0--0-0-0-0-|
                 This time I'll do things proper

e:---------------------------------|
B:---------------------------------|
G:-2-2-2-2-2-2-2-2-2-2-2-2-2-2-2-2-|
D:-2-2-2-2-2-2-2-2-2-2-2-2-2-2-2-2-|
A:-0-0-0-0-0-0-0-0-0-0-0-0-0-0-0-0-|
E:---------------------------------|
                       How did it get to this?

(for the rest of this chorus, Guitar 2 plays B:-12-)
(------------------------------------------- G:-12-)

Guitar 2:
e:-------------------------------------|
B:-------------------------------------|
G:-5-5-5-------------------------------|
D:-5-5-5-5-5-5-2-2-2-2-2-2-2-2-2-2-2-2-|
A:-3-3-3-5-5-5-2-2-2-2-2-2-2-2-2-2-2-2-|
E:-------3-3-3-0-0-0-0-0-0-0-0-0-0-0-0-|
                     It was the promise of summer

e:-------------------------------------|
B:-------------------------------------|
G:-5-5-5-------------------------------|
D:-5-5-5-5-5-5-2-2-2-2-2-2-2-2-2-2-2-2-|
A:-3-3-3-5-5-5-2-2-2-2-2-2-2-2-2-2-2-2-|
E:-------3-3-3-0-0-0-0-0-0-0-0-0-0-0-0-|
                   We sealed it with a kiss

e:-------------------------------------|
B:-------------------------------------|
G:-5-5-5-------------------------------|
D:-5-5-5-5-5-5-2-2-2-2-2-2-2-2-2-2-2-2-|
A:-3-3-3-5-5-5-2-2-2-2-2-2-2-2-2-2-2-2-|
E:-------3-3-3-0-0-0-0-0-0-0-0-0-0-0-0-|
                 This time I'll do things proper


e:---------------------------------|
B:---------------------------------|
G:-2-2-2-2-2-2-2-2-2-2-2-2-2-2-2-2-|
D:-2-2-2-2-2-2-2-2-2-2-2-2-2-2-2-2-|
A:-0-0-0-0-0-0-0-0-0-0-0-0-0-0-0-0-|
E:---------------------------------|
                       How did it get to this?

Bridge:

Guitar 2:
e:-------------------------------------|
B:-------------------------------------|
G:-------------------------------------|
D:-7-7-7-9-9-9-9-9-9-------------------|
A:-------------------9-9-9-10-10-10-10-|
E:-------------------------------------|

e:-------------------------------------|
B:-------------------------------------|
G:-------------------------------------|
D:-7-7-7-9-9-9-9-9-9-------------------|
A:-------------------9-9-9-10-10-10-10-|
E:-------------------------------------|

Guitar 1:
e:---------------------------------|
B:-10-------10-------7-------7-----|
G:------7--------7-------7-------7-|
D:---------------------------------|     x2
A:---------------------------------|
E:---------------------------------|

Guitar 2:
e:-------------------------------------|
B:-------------------------------------|
G:-------------------------------------|
D:-7-7-7-9-9-9-9-9-9-------------------|     x2
A:-------------------9-9-9-10-10-10-10-|
E:-------------------------------------|

Guitar 2:
e:-------------------------------------|
B:-------------------------------------|
G:-------------------------------------|
D:-7-7-7-9-9-9-9-9-9-------------------|
A:-------------------9-9-9-10-10-10-10-|
E:-------------------------------------|

e:-------------------------------------|
B:-------------------------------------|
G:-------------------------------------|
D:-7-7-7-9-9-9-9-9-9-------------------|
A:-------------------9-9-9-10-10-10-10-|
E:-------------------------------------|

Guitar 1:
e:---------------------------------|
B:-10-------10-------7-------7-----|
G:------7--------7-------7-------7-|
D:---------------------------------|
A:---------------------------------|
E:---------------------------------|

Guitar 2:
e:-------------------------------------|
B:-------------------------------------|
G:-------------------------------------|
D:-7-7-7-9-9-9-9-9-9-------------------|
A:-------------------9-9-9-10-10-10-10-|
E:-------------------------------------|

Guitar 1:
e:--------------------------------------------|
B:-10-------10--------12-12-12-12-12-12-12/14-|
G:------7--------7----12-12-12-12-12-12-12/14-|
D:--------------------------------------------|
A:--------------------------------------------|
E:--------------------------------------------|

Guitar 2:
e:------------------X-|
B:------------------X-|
G:------------------X-|
D:-7-7-7-9-9-9-9-9----|9X
A:------------------X-|
E:------------------X-|


(Repeat Chorus 2 one time)

(Repeat bridge as outro)

Sorry If it seems confusing...
it's pretty easy once you get the hang of it.
any questions or comments, again, myspace.com/boss61607

~Phil
Suggest correction
Creating personal tab
Creating personal tab
You can edit any tab online and save it as your Personal.

You can edit, replace or remove any tab part or add personal notes – all changes will be seen only by you.

Personal tabs can be accessed anytime from any device, even offline.
Learn more »
comments
print report bad tab
3 comments total.
0 reply
GBnhis_les paul 10 Jul 25, 2007 04:13 AM

this is the best tab out of the 8 that there are

2 faults well that sound better to me anyway

you have the most accurate intro out of the lot
except...

Intro

Guitar 1
(0:00~0:12)
e:------------------------------------------------------------------|
B:-12------10------10------8------8------6------8------8------5-----|
G:-12------11-------9------7------9------5------7------9------5-----|
D:----x16-----x8------x8-----x3-----x3-----x10----x3-----x3-----x10-|
A:------------------------------------------------------------------|
E:------------------------------------------------------------------|
(0:12~0:25)
e:------------------------------------------------------------------|
B:-12----10----10-----8------8------6------8------8------5------12~-|
G:-12----11----9------7------9------5------7------9------5------12~-|
D:---x16----x8-----x8----x3-----x3-----x10----x3-----x3-----x10-----|
A:------------------------------------------------------------------|
E:------------------------------------------------------------------|

this 6-5 part at the end sounds better as 5-5

also at the bridge are you shure it's not an octave higher because in some places it goes up an octave

e:-------------------------------------------------------|
B:--10-10-10-12-12-12-12-12------------------------------|
G:--------------------------11-11-11-12-12-12-12-12------|
D:-------------------------------------------------------|
A:-------------------------------------------------------|
E:-------------------------------------------------------|

0 reply
remenition 10 Feb 12, 2008 12:35 PM

i have no complaints at all! this tab sound perfect to me.

guest
You may want to rate the tab now too:
select rating
Wanna post a correction for this tab? Suggest correction