Oops, an error
Loading. Please wait.

Little Death tab

version 1
version 1

Whole song

Interactive

by +44
14,743 views 18 this week
10 commentsread comments
1 2 3 4 5
x 16
add to favorites
×
Save as Personal and add changes to this tab that will be seen only by you. Learn more ›
×
You can save this tab as Personal to edit and correct it or add notes. All changes will be seen only by you. Learn more »
launch autoscroll
font size
0
reset
how to read this tab
guitar tuner
edit
Autoscroll
slow
fast
+/-
esc
set tempo
stop
Song:Little Death
Band:Plus 44 (+44)
Album:When Your Heart Stops Beating
Tabbed by: Corey R.
Tuning:Standard
~=let ring

im pretty sure this is 100% correct but there might be something wrong
NOTE: THERE ARE BOTH GUITAR PARTS IN THIS TAB
Guitar 1: Shane Gallagher (clean or acoustic your decision)
Guitar 2: Craig Fairbaugh (distorted)

Intro Guitar 1
e------------------------------------------|
B-----0---------0--------------------------|
G-------0~--------0~--------0~--------0~---|
D-222-------222----------00--------00------| x2
A---------------------33--------33---------|
E------------------------------------------|

Verse Guitar 1
e--------------------------------------------------|
B-----0-----0-----0-----0--------------------------|
G-------000---------000----------0000-------0000---|
D-222---------222-------------00---------00--------| x2
A--------------------------33---------33-----------|
E--------------------------------------------------|

Pre-Verse Guitar 1
e-0~---------|
B-0~---5~----|
G-0~---5~----|
D-2~---5~----| x1
A-2~---3~----|
E-0~---------|

Repeat Verse but x4 NOT x2

Chorus Guitar 1
e-------------------2-2-2-0----|
B--------------------------0---|
G------------------------------|
D-5555555555555555-------------| x2
A-5555555555555555-------------|
E-3333333333333333-------------|

Chorus Guitar 1 (con.)
e-------------------------------------|
B-------------------------------------|
G-------------------------------------|
D-5555555555555555-2222222222222222---| x2
A-5555555555555555-2222222222222222---|
E-3333333333333333-0000000000000000---|

Chorus Guitar 2
e-------------------------------------|
B-------------------------------------|
G-------------------------------------|
D-5555555555555555-2222222222222222---| x4
A-5555555555555555-2222222222222222---|
E-3333333333333333-0000000000000000---|

Pre-Verse Guitar 1
e-0~--
B-0~--
G-0~--
D-2~-- x1
A-2~--
E-0~--

Repeat Verse but x4 NOT x2
Repeat Chorus

Bridge
e-----------------------------------------------|
B-----------------------------------------------|
G-77777777-555-44-22-444------------------------|
D-xxxxxxxx-xxx-xx-xx-xxx-555-777-555-444444-----|
A-55555555-333-22-00-222-xxx-xxx-xxx-xxxxxx-----|
E------------------------333-555-333-222222-----|

e--------------------------------------|
B--------------------------------------|
G-77777777-555-4444-99999999-444444----|
D-xxxxxxxx-xxx-xxxx-xxxxxxxx-xxxxxx----|
A-55555555-333-2222-77777777-222222----| WHOLE ENTIRE THING x2
E--------------------------------------|
if you want to you could just play the notes on the G string

Guitar 2 just play chorus during the bridge

Interlude Guitar 1
e-----7-----7-----7~---------------|
B---8-----8-----8-8~------0-3--0~--|
G-9-----9-----9---9~----0----------|
D---------------------2------------| x4
A----------------------------------|
E----------------------------------|

Interlude Guitar 2
e------------------------------|
B------------------------------|
G------------------------------|
D-2~~~~~~~~~~~~~~~~~~~~~~~~~---| x4
A-2~~~~~~~~~~~~~~~~~~~~~~~~~---
E-0~~~~~~~~~~~~~~~~~~~~~~~~~---

Repeat Chorus

End On
e-0~~
B-0~~
G-0~~
D-2~~
A-2~~
E-0~~

please rate im pretty sure its at least 95% right im also thinking about trying to put
lycanthrope and 155 tab on here but i dont know becuase my tabs always seem to be
but this one should get in because its the only one with both guitars and probably the 
accurate but you never know
Suggest correction
Creating personal tab
Creating personal tab
You can edit any tab online and save it as your Personal.

You can edit, replace or remove any tab part or add personal notes – all changes will be seen only by you.

Personal tabs can be accessed anytime from any device, even offline.
Learn more »
comments
print report bad tab
10 comments total. Showing first comments.
0 reply
Blnkone82rulz 240 Jan 23, 2007 10:59 AM

ok on the chorus for guitar 1 on the first part i think there only 2 2's not 3 so, e-2-2-0
b------0
and for the preverse part guitar 2 plays D-2
A-2
E-0 along with gt. 1's part

0 reply
Blnkone82rulz 240 Jan 23, 2007 10:59 AM

that got messed up but you should get it

0 reply
Blnkone82rulz 240 Jan 23, 2007 11:00 AM

how do you modify tabs?

guest
You may want to rate the tab now too:
select rating
Wanna post a correction for this tab? Suggest correction