Oops, an error
Loading. Please wait.

Little Death tab

version 4
version 4

Whole song

Interactive

by +44
951 views 1 this week
1 commentread comment
1 2 3 4 5
1 last vote to show rating
add to favorites
×
Save as Personal and add changes to this tab that will be seen only by you. Learn more ›
×
You can save this tab as Personal to edit and correct it or add notes. All changes will be seen only by you. Learn more »
launch autoscroll
font size
0
reset
how to read this tab
guitar tuner
edit
Autoscroll
slow
fast
+/-
esc
set tempo
stop
Difficulty
Verse part 1
E|-------------------------------------||
B|-----0--------0----------------------||
G|-------0~-------0~-------0~-------0~-||
D|-222------222---------00-------00----|| x2
A|-------------------33-------33-------||
E|-------------------------------------||

verse part 2 (Play this when the bass comes in)
E|------------------------------------------------||
B|-----0-----0-----0-----0------------------------||
G|-------000---------000---------0000-------0000--||
D|-222---------222------------00---------00-------|| x2
A|-------------------------33---------33----------||
E|------------------------------------------------||


Chorus (Guitar 1)

chorus
E|------------------------------------||
B|------------------------------------||
G|------------------------------------||
D|-5555555555555555-2222222222222222--|| x4
A|-5555555555555555-2222222222222222--||
E|-3333333333333333-0000000000000000--||


chorus (Guitar 2) Guitar plays the right after
Mark says "Fall asleep with the windows open"
and after he says "Come to me with the worst
you've said and done.
E|--------3----------------------------||
B|--7-7-5------------------------------||
G|-------------------------------------||
D|-------------------------------------|| 
A|-------------------------------------||
E|-------------------------------------||






            
            
Suggest correction
Creating personal tab
Creating personal tab
You can edit any tab online and save it as your Personal.

You can edit, replace or remove any tab part or add personal notes – all changes will be seen only by you.

Personal tabs can be accessed anytime from any device, even offline.
Learn more »
Give kudos to tab author, rate the tab!
1 2 3 4 5
comments
print report bad tab
1 comment total.
0 reply
Blnkone82rulz 240 Jan 21, 2007 03:19 PM

short tab missing parts and that 2nd guitar part in the chorus is wrong but other than that its right

guest
Wanna post a correction for this tab? Suggest correction