Oops, an error
Loading. Please wait.

Lycanthrope Tab

version 1
version 1

Whole song

Interactive

by +44
9,894 views 33 this week
3 commentsread comments
1 2 3 4 5
worth learning
x 8
add to favorites
launch autoscroll
font size
0
reset
how to read this tab
guitar tuner
Tab Pro tools
  • play this tab
  • loop segment
  • change instrument
  • show fretboard
  • metronome
Autoscroll
slow
fast
+/-
esc
set tempo
stop
Contributor
Difficulty
novice
GUITAR I

INTRO (repeat 2x)
|----------------------------------------------------------------------|
|----------------------------------------------------------------------|
|-5-5-5-5-5-5-5-5-7-9-9-9-9-10-10-10-10-5-5-5-5-5-5-5-7-9-9-9-9--------|
|-x-x-x-x-x-x-x-x-x-x-x-x-x-x-x-x-x-x-x-x-x-x-x-x-x-x-x-x-x-x-x--------|
|-3-3-3-3-3-3-3-3-5-7-7-7-7--8--8--8--8-3-3-3-3-3-3-3-5-7-7-7-7-3-3-3-3|
|---------------------------------------------------------------1-1-1-1|

VERSE
|----------------------------------------------------------------------|
|----------------------------------------------------------------------|
|---------------------------2-2-2-2-0-0-0-0----------------------------|
|-3-2-2-2-2-2-2-3-2-2-2-2-2-0-0-0-0-0-0-0-0----------------------------|
|-0-0-0-0-0-0-2-3-3-3-3-3-3--------------------------------------------|
|----------------------------------------------------------------------|

|----------------------------------------------------------------------|
|----------------------------------------------------------------------|
|----------------------------------------------------------------------|
|-3-2-2-2-2-2-2-3-2-2-2-2-2--------------------------------------------|
|-0-0-0-0-0-0-2-3-3-3-3-3-3-3-3-3-3-3-3-3------------------------------|
|---------------------------1-1-1-1-1-1-1------------------------------|

CHORUS (repeat 4x)
|----------------------------------------------------------------------|
|----------------------------------------------------------------------|
|----------------------------------------------------------------------|
|-5-5-5-5-5-5-5-7-7-7-7-7-7-7------------------------------------------|
|-3-3-3-3-3-3-3-5-5-5-5-5-5-5-7-7-7-7-7-7-7-7-7-7-7--------------------|
|-----------------------------5-5-5-5-5-5-5-5-5-5-5--------------------|

BRIDGE (same thing as chorus)

__________________________________________________________________________
GUITAR II

INTRO (this part of the intro comes in a few seconds after the intro plays not quite at 
start... wait for it you'll hear it)
|----------------------------------------------------------------------|
|----------------------------------------------------------------------|
|-4-4-4-4-7h9-9-9-9-9-9-9-9-9-9-10-10p9-9-9-9-9-9-9p7-7-7-7-7-7-7h9-9-9|
|----------------------------------------------------------------------|
|----------------------------------------------------------------------|
|----------------------------------------------------------------------|

|----------------------------------------------------------------------|
|----------------------------------------------------------------------|
|-9-9-9-9-9-9-10-10p9-9-9/14-14-14-14-14-14-14-14-10p9~~~--------------|
|----------------------------------------------------------------------|
|----------------------------------------------------------------------|
|----------------------------------------------------------------------|

VERSE (same as GUITAR I's verse)

CHORUS
|----------------------------------------------------------------------|
|-17-15-15-------15-17-15-15-------15-17-15-15-------15-17-15-15-------|
|----------17-17-------------17-17-------------17-17-------------17-17-|
|----------------------------------------------------------------------|
|----------------------------------------------------------------------|
|----------------------------------------------------------------------|

|----------------------------------------------------------------------|
|-17-15-15-------15-15-------------------------------------------------|
|----------17-17-------16-16-17-17-14-14-16-(and repeat)---------------|
|----------------------------------------------------------------------|
|----------------------------------------------------------------------|
|----------------------------------------------------------------------|

BRIDGE (repeat 2x)

|----------------------------------------------------------------------|
|----------------------------------------------------------------------|
|-5/12-12/10-9-10/7/12-12/10/9/5-10/9-10/9-10/9/12-10-9/10-------------|
|-x-x-x-x-x-x-x-x-x-x-x-x-x-x-x-x-x-x-x-x-x-x-x-x-x-x-x-x--------------|
|-3/10-10/-8-7--8/5/10-10/-8/7/3--8/7--8/7--8/7/10--8-7/-8-------------|
|----------------------------------------------------------------------|

this is my first tab so i hope i did good writing it though i know the tab in its 
is good...enjoy the song it's awesome!
comments
print report bad tab
3 comments total.
0 reply
imdwalrus wrote on December 3 2006, 02:07 pm

The intro is wrong and the chord structures for the verse are horribly incorrect.

0 reply
Blnkone82rulz wrote on January 21 2007, 08:36 pm

a lot of parts are wrong

0 reply
dragonforce13 wrote on January 19 2009, 03:38 pm

its not bad.
it sounds better than all the other tabs for this song that ive seen.

I want to post or [tab]
guest
You may want to rate the tab now too:
select rating
Please do not post tabs as comments. Select "correction" instead!