Oops, an error
Loading. Please wait.

Lycanthrope tab

version 2
version 2

Whole song

Interactive

by +44
7,007 views 9 this week
5 commentsread comments
1 2 3 4 5
x 16
add to favorites
×
Save as Personal and add changes to this tab that will be seen only by you. Learn more ›
×
You can save this tab as Personal to edit and correct it or add notes. All changes will be seen only by you. Learn more »
launch autoscroll
font size
0
reset
how to read this tab
guitar tuner
edit
Autoscroll
slow
fast
+/-
esc
set tempo
stop
(+44)
When Your Heart Stops Beating (2006)
Lycanthrope
>>Tablatura Guitarra 1<<

Intro x2
Pt. 1
e|----------------------------------------------|
B|----------------------------------------------|
G|--7-99999999999-10101010-99-999-101010101010--|
D|----------------------------------------------|
A|----------------------------------------------|
E|----------------------------------------------|

Pt. 2
e|-------------------------------------------|
B|-------------------------------------------|
G|--7-99999999999-10101010-99-999------------|
D|--------------------------------10-999999--|
A|-------------------------------------------|
E|-------------------------------------------|

Pt. 1

Pt. 3
e|------------------------------------------------|
B|--------------------------------10101010101010--|
G|--7-99999999999-10101010-99-999-----------------|
D|------------------------------------------------|
A|------------------------------------------------|
E|------------------------------------------------|

Riff
e|---------|
B|---------|
G|--10-9~--|
D|---------|
A|---------|
E|---------|

Guitarra 2 [Verso x2]

Intro
Pt. 1
Pt. 3
Riff

Guitarra 2 [Verso x2]

Coro x4
e|--------------------------------------|
B|--------------------------------------|
G|--55555555-77777777-------------------|
D|--55555555-77777777-7777777777777777--|
A|--33333333-55555555-7777777777777777--|
E|--------------------5555555555555555--|

Intro
Pt. 1
Pt. 3
Riff x4

Coro x4

Intermedio x2
e|-------------------------------------------------------|
B|-------------------------------------------------------|
G|--5-5555555555555-7-7777777777777----------------------|
D|--5-5555555555555-7-7777777777777-77~-77~-77~-6-66666--|
A|--3-3333333333333-5-5555555555555-77~-77~-77~-6-66666--|
E|----------------------------------55~-55~-55~-4-44444--|

Coro x4

Intro

Fin
e|-------|
B|-------|
G|--13~--|
D|-------|
A|-------|
E|-------|

>>Tablatura Guitarra 2<<

Intro x2
Pt. 1
e|-----------------------------------------|
B|-----------------------------------------|
G|--555555555555-777-9-99-999-10-1010-109--|
D|--xxxxxxxxxxxx-xxx-x-xx-xxx--x--x-x--xx--|
A|--333333333333-555-7-77-777--8--8-8--87--|
E|-----------------------------------------|

Pt. 2
e|-----------------------------------|
B|-----------------------------------|
G|--5-555555554-7779-99-99-----------|
D|--x-xxxxxxxxx-xxxx-xx-xx33-333333--|
A|--3-333333332-5557-77-77xx-xxxxxx--|
E|------------------------11-111111--|

Verso x2
Pt. 1
e|----------------------------------------|
B|----------------------------------------|
G|----------------------------------------|
D|----------------------------------------|
A|--8-77-77777777-88888-77-777-5-8-5-8-8--|
E|--5-55-55555555-88888-88-888------------|

Pt. 2
e|--------------------------------------|
B|--------------------------------------|
G|--------------------------------------|
D|--------------------------------------|
A|--8-77-77777777-88888-77-777-333-333--|
E|--5-55-55555555-88888-88-888-111-111--|

Intro x2

Verso x2

Coro x2
Pt. 1
e|------------------------------------------------------------|
B|--17-17-15----15-17-17-15----15-17-17-15----15-17-15-18-17--|
G|-----------17-------------17-------------17-----------------|
D|------------------------------------------------------------|
A|------------------------------------------------------------|
E|------------------------------------------------------------|

Pt. 2
e|------------------------------------------------------------|
B|--17-17-15----15-17-17-15----15-17-17-15----15--------------|
G|-----------17-------------17-------------17----16-17-14-16--|
D|------------------------------------------------------------|
A|------------------------------------------------------------|
E|------------------------------------------------------------|

Intro

Fin
e|------|
B|------|
G|------|
D|--7~--|
A|--7~--|
E|--5~--|

Verso 2
Pt. 1
e|---------------------------------------------------|
B|---------------------------------------------------|
G|---------------------------444-5-555555------------|
D|------------3-7-7777777777-444-5-555555------------|
A|------------3-7-7777777777-222-3-333333-5-8-5-8-8--|
E|--pickslide-1-5-5555555555-------------------------|
                  .......... ...   ......

Pt. 2
e|-----------------------------------|
B|-----------------------------------|
G|---------------444-555555-3333333--|
D|--7-7777777777-444-555555-3333333--|
A|--7-7777777777-222-333333-1111111--|
E|--5-5555555555---------------------|
      ..........

Coro x2

Intermedio x2
e|---------------------------------------------------|
B|---------------------------------------------------|
G|--5-1212-1010-1099-910--7-1212-1010-1099-95--109~--|
D|--x--x-x--x-x--xxx-x-x--x--x-x--x-x--xxx-xx---xx---|
A|--3-1010--8-8--877-7-8--5-1010--8-8--877-73---87~--|
E|---------------------------------------------------|

Coro x2

Intro x2

Fin

>>Tablatura Guitarra 3<<

Intro x2
Pt. 1
e|------------------------------------|
B|------------------------------------|
G|---------------444-5555555-7777777--|
D|--777777777777-444-5555555-7777777--|
A|--777777777777-222-3333333-5555555--|
E|--555555555555----------------------|

Pt. 2
e|------------------------------------|
B|------------------------------------|
G|---------------444-5555555----------|
D|--777777777777-444-5555555-3333333--|
A|--777777777777-222-3333333-3333333--|
E|--555555555555-------------1111111--|

Fin
e|------|
B|------|
G|------|
D|--7~--|
A|--7~--|
E|--5~--|

Guitarra 2 [Verso x2]

Intro

Fin

Guitarra 2 [Verso x2]

Guitarra 1 [Coro x2]     Guitarra 2 [Coro x4]

Intro

Fin

Guitarra 2 [Verso 2]

Guitarra 1 [Coro x2]     Guitarra 2 [Coro x4]

Guitarra 1 [Intermedio x2]     Guitarra 2 [Intermedio x2]

Guitarra 1 [Coro x2]     Guitarra 2 [Coro x4]

Intro x2

Fin

facsimilejuan!
Suggest correction
Creating personal tab
Creating personal tab
You can edit any tab online and save it as your Personal.

You can edit, replace or remove any tab part or add personal notes – all changes will be seen only by you.

Personal tabs can be accessed anytime from any device, even offline.
Learn more »
comments
print report bad tab
5 comments total. Showing first comments.
+1 reply
The_Legacy 10 Dec 11, 2006 02:54 PM

You may be missing a few transition notes on every line, but overall its pretty decent.

+1 reply
mr.tab 10 Jun 07, 2007 04:07 PM

ok intro deffinatly wrong, just all wrong i'll fix some of it..

BACKUP GUITAR:
e|--------------------------|
B|--------------------------|
G|--2-2-2-2-2-2-2-2-2-2-2-2-|
D|--2-2-2-2-2-2-2-2-2-2-2-2-|
A|--------------------------|
E|--------------------------|

e|------------------------------|
B|------------------------------|
G|--2-2-2-2-2-2-2-2-------------|
D|--2-2-2-2-3-3-3-3-3-3-3-3-3-3-|
A|--3-3-3-3-3-3-3-3-5-5-5-5-5-5-|
E|------------------------------|

e|--------------------------|
B|--------------------------|
G|--2-2-2-2-2-2-2-2-2-2-2-2-|
D|--2-2-2-2-2-2-2-2-2-2-2-2-|
A|--------------------------|
E|--------------------------|


|------------------------------|
|------------------------------|
|--2-2-2-2-2-2-2-2-------------|
|--2-2-2-2-3-3-3-3-3-3-3-3-3-3-|
|--3-3-3-3-3-3-3-3-3-3-3-3-3-3-|
|------------------1-1-1-1-1-1-|

LEAD GUITAR:
e|--0-0-0-0-0-0-0-0-0-0-|
B|--5-5-5-5-5-5-5-5-5-5-|
G|----------------------|
D|----------------------|
A|----------------------|
E|----------------------|

e|--0-0-0-0-0-0-0-0-0-0-0-0|
B|--6-6-6/8-8-8-8-8-8\6-6-6|
G|-------------------------|
D|-------------------------|
A|-------------------------|
E|-------------------------|

e|--0-0-0-0-0-0-0-0-0-0-|
B|--5-5-5-5-5-5-5-5-5-5-|
G|----------------------|
D|----------------------|
A|----------------------|
E|----------------------|


e|--0-0-0-0-0-0-0-0-0-0-0-0-0-0-0-|
B|--4-4-4/6-6-6/8-8-8-8-8\6-6-6-6-|
G|--------------------------------|
D|--------------------------------|
A|--------------------------------|
E|--------------------------------|

^^^PLAY ALL THAT x2^^^

THEN PLAY THIS...

e|--0-0-0-0-0-0-0-0-0-0-|
B|--5-5-5-5-5-5-5-5-5-5-|
G|----------------------|
D|----------------------|
A|----------------------|
E|----------------------|

e|--0-0-0-0-0-0-0-0-0-0-0-0-0-0-0-|
B|--4-4-4/6-6-6/8-8-8-8-8/10101010|
G|--------------------------------|
D|--------------------------------|
A|--------------------------------|
E|--------------------------------|

OK THATS ONLY THE INTRO AND POST CHORUS I HOPE THATS NOT TOO HARD TOO UNDERSTAND PLEASE COMMENT FOR ANY CORRECTIONS

-1 reply
SundaySt 61 Jul 20, 2007 09:18 PM

um..english please? its kinda confusing..haha..

guest
You may want to rate the tab now too:
select rating
Wanna post a correction for this tab? Suggest correction