Oops, an error
Loading. Please wait.

Lycanthrope bass

version 3
version 3

Whole song

Interactive

by +44
11,160 views 1 this week
1 commentread comment
1 2 3 4 5
x 13
add to favorites
×
Save as Personal and add changes to this tab that will be seen only by you. Learn more ›
×
You can save this tab as Personal to edit and correct it or add notes. All changes will be seen only by you. Learn more »
launch autoscroll
font size
0
reset
guitar tuner
edit
Autoscroll
slow
fast
+/-
esc
set tempo
stop
Author
Difficulty
(+44)
When Your Heart Stops Beating (2006)
Lycanthrope
Tablatura Bajo

Intro x2
Pt. 1
G|---------------------------------------------|
D|------------------0---0-2--------0-0000-2-0--|
A|--3-0-00000000000---3-----333333-------------|
E|---------------------------------------------|

Pt. 2
G|-----------------------------------------------|
D|------------------0---0-2-----0-2--------------|
A|--3-0-00000000000---3-----333-----3------------|
E|------------------------------------1-11111-0--|

Verso x2
Pt. 1
G|------------------------------------|
D|---------------------------0000000--|
A|--000000000000-222-3333333----------|
E|------------------------------------|

Pt. 2
G|------------------------------------|
D|------------------------------------|
A|--000000000000-222-3333333----------|
E|---------------------------1111111--|

Intro

Verso x2

Coro x4
G|--------------------------------------|
D|--------------------------------------|
A|--33333333-55555555-0000000000000000--|
E|--------------------------------------|

Intro

Verso x2

Coro x4

Intermedio x2
G|---------------------------------------------------------------------|
D|---------------------------------------------------------------------|
A|--3-33333333333333-5-55555555555555-0-0-0-0-0-0-0-0-0-0-0-0----------|
E|------------------------------------------------------------4-4-4-4--|

Coro x4

Intro x2

Fin
G|------|
D|------|
A|--0~--|
E|------|

facsimilejuan!
Suggest correction
Creating personal tab
Creating personal tab
You can edit any tab online and save it as your Personal.

You can edit, replace or remove any tab part or add personal notes – all changes will be seen only by you.

Personal tabs can be accessed anytime from any device, even offline.
Learn more »
comments
print report bad tab
1 comment total.
0 reply
LoloLalaLe 51 Jul 31, 2009 11:31 PM

YEAAAH!!! un buen tabero mexicano!!!!
5strellas

guest
You may want to rate the tab now too:
select rating
Wanna post a correction for this tab? Suggest correction