Oops, an error
Loading. Please wait.

Make You Smile bass

version 1
version 1

Whole song

Interactive

by +44
2,080 views 1 this week
3 commentsread comments
1 2 3 4 5
1 last vote to show rating
add to favorites
×
Save as Personal and add changes to this tab that will be seen only by you. Learn more ›
×
You can save this tab as Personal to edit and correct it or add notes. All changes will be seen only by you. Learn more »
launch autoscroll
font size
0
reset
guitar tuner
edit
Autoscroll
slow
fast
+/-
esc
set tempo
stop
verse
g/------------------------------------------|
d/------------------------------------------|
a/--5~----------------------------------X 4-|
e/--------------5~---------3~---------------|

interlude
g/------------------------------------------|
d/------------------------------------------|
a/--5~----------------------------------X 4-|
e/--------------5~---------3~---------------|

verse 2
g/------------------------------------------|
d/------------------------------------------|
a/--5~----------------------------------X 4-|
e/--------------5~---------3~---------------|

chourus not sure
G/-------------------------------------------------------|
d/-------------------------------------------------------|
a/-------------------------------------------------------|
e/-11-11-11-11-11-11-11-11-10-10-10-10-10-10-10-10-10----|

chourus contuiont
g/-----------------------------------------------------|
d/-----------------------------------------------------|
a/-----------------------------------------------------|
e/-33333333-55555555-----------------------------------|

verse 3 also more like birdge
verse
g/------------------------------------------|
d/------------------------------------------|
a/--5~----------------------------------X 3-|
e/--------------5~---------3~---------------|

chourus not sure
G/-------------------------------------------------------|
d/-------------------------------------------------------|
a/-------------------------------------------------------|
e/-11-11-11-11-11-11-11-11-10-10-10-10-10-10-10-10-10----|

chourus contuiont
g/-----------------------------------------------------|
d/-----------------------------------------------------|
a/-----------------------------------------------------|
e/-33333333-55555555-----------------------------------|

thats all not to sure about chourus.
Suggest correction
Creating personal tab
Creating personal tab
You can edit any tab online and save it as your Personal.

You can edit, replace or remove any tab part or add personal notes – all changes will be seen only by you.

Personal tabs can be accessed anytime from any device, even offline.
Learn more »
Give kudos to tab author, rate the tab!
1 2 3 4 5
comments
print report bad tab
3 comments total.
0 reply
Harry.B182! 51 Dec 07, 2006 06:53 AM

the chorus is 12 to 9 to 5 to 7................well thats wot he did wen i saw em in london

0 reply
childrenatplay4 115 Dec 07, 2006 08:36 AM

i now it now it is
g/------------------------------------------
d/------------------------------------------
a/-555555555-777777777----------------------
e/----------------------333333333-555555555-

i saw them live two
but i still dont now chourus part 1

0 reply
A FiRe InSiDe 96 Dec 20, 2006 07:18 PM

.... how can u say the chorus is wrong.... u dont even say u dont know in urs

guest
You may want to rate the tab now too:
select rating
Wanna post a correction for this tab? Suggest correction