Oops, an error
Loading. Please wait.

Make You Smile bass

version 2
version 2

Whole song

Interactive

by +44
2,495 views 3 this week
1 commentread comment
1 2 3 4 5
1 last vote to show rating
add to favorites
×
Save as Personal and add changes to this tab that will be seen only by you. Learn more ›
×
You can save this tab as Personal to edit and correct it or add notes. All changes will be seen only by you. Learn more »
launch autoscroll
font size
0
reset
guitar tuner
edit
Autoscroll
slow
fast
+/-
esc
set tempo
stop
Author
Difficulty
Song: Make You Smile
Band: Plus 44 (+44)
Album: When Your Heart Stops Beating
Tabbed By : A FiRe InSiDe
Email : plain.white.ts__@hotmail.com
Tuning: Standard

Intro:
G|------------------------------------|
D|------------------------------------|
A|------------------------------------|
E|------------------------------------|

Verse:
G|------------------------------------|
D|------------------------------------|
A|-5~---------------------------------|x4
E|-----------5~-----------3~----------|

Interlude:
G|------------------------------------|
D|------------------------------------|
A|-5~---------------------------------|x3
E|-----------5~-----------3~----------|

Verse:
G|------------------------------------|
D|------------------------------------|
A|-5~---------------------------------|x4
E|-----------5~-----------3~----------|

Chorus:
G|------------------------------------|
D|------------------------------------|
A|-5~---------------------------------|x2
E|-----------5~-----------3~----------|


G|------------------------------------|
D|------------------------------------|
A|------------------------------------|
E|12-12-12-12-9-9-9-9-5-5-5-5-7-7-7-7-|


G|------------------------------------|
D|------------------------------------|
A|----------------3-3-3-3-5-5-5-5-----|
E|5-5-5-5-7-7-7-7---------------------|

Rest until lyrics start again

Verse:
G|------------------------------------|
D|------------------------------------|
A|-5~---------------------------------|x4
E|-----------5~-----------3~----------|

Chorus:
G|------------------------------------|
D|------------------------------------|
A|-5~---------------------------------|x2
E|-----------5~-----------3~----------|


G|------------------------------------|
D|------------------------------------|
A|------------------------------------|
E|12-12-12-12-9-9-9-9-5-5-5-5-7-7-7-7-|


G|------------------------------------|
D|------------------------------------|
A|----------------3-3-3-3-5-5-5-5-----|
E|5-5-5-5-7-7-7-7---------------------|

Outro:
G|------------------------------------|
D|------------------------------------|
A|-5~---------------------------------|x2
E|-----------5~-----------3~----------|


G|------------------------------------|
D|------------------------------------|
A|------------------------------------|
E|12-12-12-12-9-9-9-9-5-5-5-5-7-7-7-7-|


G|------------------------------------|
D|------------------------------------|
A|----------------3-3-3-3-5-5-5-5~----|
E|5-5-5-5-7-7-7-7---------------------|

            
            
Suggest correction
Creating personal tab
Creating personal tab
You can edit any tab online and save it as your Personal.

You can edit, replace or remove any tab part or add personal notes – all changes will be seen only by you.

Personal tabs can be accessed anytime from any device, even offline.
Learn more »
Give kudos to tab author, rate the tab!
1 2 3 4 5
comments
print report bad tab
1 comment total.
0 reply
childrenatplay4 115 Dec 18, 2006 01:17 PM

that what i wrote but you end and chourus are wrong verse are good

guest
You may want to rate the tab now too:
select rating
Wanna post a correction for this tab? Suggest correction