Oops, an error
Loading. Please wait.

Make You Smile bass

version 4
version 4

Whole song

Interactive

by +44
7,222 views 9 this week
2 commentsread comments
1 2 3 4 5
x 9
add to favorites
×
Save as Personal and add changes to this tab that will be seen only by you. Learn more ›
×
You can save this tab as Personal to edit and correct it or add notes. All changes will be seen only by you. Learn more »
launch autoscroll
font size
0
reset
guitar tuner
edit
Autoscroll
slow
fast
+/-
esc
set tempo
stop
Difficulty
This is my first tab... up for critism (used the guitar tab to help me out in this when 
was unsure about some parts... :P)

Intro:
rest for 2 bars (guitar/piano only)

Verse:
||-----------------||
|.-----------------.|x4
|.-0~--2~----------.|
||---------3~------||

Interlude:
||-----------------||
|.-----------------.|x2
|.-5~--2~----------.|
||---------3~------||

|-----------------|
|-----------------|
|-5~--4~----------|
|---------5~------|

Verse:
||-----------------||
|.-----------------.|
|.-5~--4~----------.|x4
||---------5~------||

Chorus:
||-----------------||   ||-----------------------------------------||
|.-----------------.|x2 |.-----------------------------------------.|x2
|.-5~--2~----------.|   |.-5555-5555-2222-2222---------------------.|
||---------3~------||   ||---------------------3333-3333-3333-3333-||

Bridge:
Rest (guitar/drums only)

Verse:
||-----------------||
|.-----------------.|
|.-0~--2~----------.|x4
||---------3~------||

Chorus:
Rest for 4 bars
then
||----------------------------------------||
|.----------------------------------------.|x4
|.-5555-5555-2222-2222--------------------.|
||---------------------3333-3333-3333-3333||

Outro:
|----|
|----|
|----|
|-3~-|

            
            
Suggest correction
Creating personal tab
Creating personal tab
You can edit any tab online and save it as your Personal.

You can edit, replace or remove any tab part or add personal notes – all changes will be seen only by you.

Personal tabs can be accessed anytime from any device, even offline.
Learn more »
comments
print report bad tab
2 comments total.
0 reply
BlenderBR 18,046 Sep 05, 2014 12:24 PM

Verse:
||-----------------||
|.-----------------.|x4
|.-0~--2~----------.|
||---------3~------||

Should Be:
||-----------------||
|.-----------------.|x4
|.-5~--0~----------.|
||---------3~------||

Interlude:
||-----------------||
|.-----------------.|x2
|.-5~--2~----------.|
||---------3~------||

Should Be:
||-----------------||
|.-----------------.|x2
|.-5~--0~----------.|
||---------3~------||

Chorus:
||-----------------||
|.-----------------.|x2
|.-5~--2~----------.|
||---------3~------||

Should be:
||-----------------||
|.-----------------.|x2
|.-5~--------------.|
||----0~-----3~----||

0 reply
ButtyMcButt 23 Mar 01, 2017 12:38 PM

didn't like this contribution

guest
Wanna post a correction for this tab? Suggest correction