Oops, an error
Loading. Please wait.

Make You Smile tab

version 4
version 4

Whole song

Interactive

by +44
60,256 views 12 this week
17 commentsread comments
1 2 3 4 5
x 37
add to favorites
×
Save as Personal and add changes to this tab that will be seen only by you. Learn more ›
×
You can save this tab as Personal to edit and correct it or add notes. All changes will be seen only by you. Learn more »
launch autoscroll
font size
0
reset
how to read this tab
guitar tuner
edit
Autoscroll
slow
fast
+/-
esc
set tempo
stop
Song:Make You Smile
Album:When Your Heart Stops Beating
Artist:Plus 44 Feat.Carol Heller
Date Tabbed:December,2006
Guitar Tabber:Ryan Manongdo/16/m/Montalban Rizal(Philippines)
              no_falter0x@yahoo.com(MySpace,Friendster&YM)

For your questions or suggestions,just post in friendster comment,PM or mail me.

Gtr.Legends:
~ - let it ring
* - artificial harmonics

Gtr.Tuning:Standard(Normal)

Intro:
e|----------------------------------|
B|------7---------7-----------------|
G|----7---7-----7---7------6-9-7~---| 2x
D|----------------------------------| 
A|-5~--------4~--------0~-----------|
E|----------------------------------|

Verse 1:The last time...
e|--------------|
B|--------------|
G|-7~-----------| 4x
D|-7~--7~--5~---|
A|-5~--7~--5~---|
E|-----5~--3~---|

Pre-Verse 2:
Gtr.1
e|-----------------------|
B|-----------------------|
G|-7~--------------------| 2x
D|-7~--7~--5~------------| Then
A|-5~--7~--5~--5-7-9-7---|
E|-----5~--3~------------|

Gtr.2:
e|-----5------5------5------5-2---|
B|-0-2----0-3----0-0----0-0-------| 2x 
G|--------------------------------| Then
D|--------------------------------| 
A|--------------------------------|
E|--------------------------------|

e|----------------------------------|
B|------7---------7-----------------|
G|----7---7-----7---7------7-9-7~---|
D|----------------------------------|
A|-5~--------4~--------0~-----------|
E|----------------------------------|

Verse 2:The first time...
Gtr.1:Play Verse 1
Gtr.2:
e|-----------------------------|
B|------7--------7-------------|
G|----7---7----7-------6-9-7---| 4x
D|-----------------------------|
A|-5~-------4~------0~---------|
E|-----------------------------|

Pre-Chorus:I dont...
Gtr.1:Continue playing Verse
Gtr.2:


Chorus:If I could...
Gtr.1
e|-------------------------------------|
B|-------------------------------------|
G|-7777------------7777-----------7~---|
D|-7777-2222-5555--7777-2222-5555-7~---|
A|-5555-2222-5555--5555-2222-5555-5~---|
E|------0000-3333-------0000-3333------|

Gtr.2
e|-----5------5------5------5-2---|
B|-0-2----0-3----0-0----0-0-------| 
G|--------------------------------| 2x Then
D|--------------------------------| 
A|--------------------------------|
E|--------------------------------|

Pre-Verse 3:
Gtr.1:Play Verse 1
Gtr.2
e|---------------------------------------------------------------|
B|-7*---------7*-----------7*-----------7*------------------7*---|
G|----7*---------5*--7*-----------7*-------5*--7*----------------| Dont' know how to play
D|-------7*--------------------7*--------------------7*--5*------| harmonics??So there's an
A|---------------------------------------------------------------| alternative below...
E|---------------------------------------------------------------|


e|-14--10---------14--15--10~----14-----10~----14-15--10~--------14~---|
B|---------10~-----------------------10-----------------------15-------|
G|---------------------------------------------------------14----------|
D|---------------------------------------------------------------------|
A|---------------------------------------------------------------------|
E|---------------------------------------------------------------------|

Verse 3:The next time...
Gtr.1:Play Verse 1


Repeat Pre-Chorus:
Repeat Chorus:

Outro:
Gtr.1:Last Chord:
e|------|
B|------|
G|-7~---|
D|-7~---|
A|-5~---|
E|------|

Gtr.2:Continue playing this prt 
e|-----5------5------5------5-2---|
B|-0-2----0-3----0-0----0-0-------| 
G|--------------------------------| Repeat
D|--------------------------------| Many Times...
A|--------------------------------|
E|--------------------------------|

End...


Make You Smile Lyrics:

Verse 1:
The last time I saw you, you turned away 
I couldn't see you with the Sun shining in my eyes 
I said "Hello" but you kept on walking 
Going deaf from the sound of the freeway 
The Last time I saw you, you turned away 
I couldn't hear you with your voice ringing in my ears 
Do you remember where we used to sleep at night 
I couldn't feel you, your always too far away 

Verse 2:
The first time I saw you, you turned away 
I couldn't see you with the smoke getting in my eyes 
I said "Hello" but you kept on walking 
Going deaf from the sound of the DJ 
The first time I saw you, you turned away 
I couldn't hear with the noise ringing in my ears 
Do you remember where we used to sleep at night 
I couldn't feel you, your always too far away 

Pre-Chorus:
I don't, don't wanna take you home 
Please don't, don't make me sleep alone 

Chorus:
If I could, I'd only want to make you smile 
If you would stay with me a while 

Verse 3:
The next time I see you, you'll turn away 
I'll say "Hello" but you'll keep on walking 
The next time I see you, you'll turn away 
Do you remember where we used to sleep at night,
I couldn't feel you, your always too far away 

Repeat Pre-Chorus:
Repeat Chorus:
Suggest correction
Creating personal tab
Creating personal tab
You can edit any tab online and save it as your Personal.

You can edit, replace or remove any tab part or add personal notes – all changes will be seen only by you.

Personal tabs can be accessed anytime from any device, even offline.
Learn more »
comments
print report bad tab
17 comments total. Showing first comments.
0 reply
magentahzz 10 Dec 25, 2006 02:39 AM

This is very gud and nce stuff..Carol Heller,rocks +44

0 reply
ju_ong_can 10 Dec 25, 2006 03:27 AM

absolutely cooooool....V!!!well done...I will give u fayb(5)click

0 reply
naphtha74 385 Dec 25, 2006 10:09 AM

Is there not any guitar harmonics in this song?

guest
You may want to rate the tab now too:
select rating
Wanna post a correction for this tab? Suggest correction