Oops, an error
Loading. Please wait.
We have an official No It Isnt tab made by UG professional guitarists. Check out the tab »
×
by +44
8,289 views 3 this week
1 commentread comment
1 2 3 4 5
x 6
add to favorites
×
Save as Personal and add changes to this tab that will be seen only by you. Learn more ›
×
You can save this tab as Personal to edit and correct it or add notes. All changes will be seen only by you. Learn more »
launch autoscroll
font size
0
reset
guitar tuner
edit
Autoscroll
slow
fast
+/-
esc
set tempo
stop
Author
+44 - No It Isn’t

Pre-Verse A
G|-----|-----|-----|-----|
D|-----|-----|-----|-----|
A|-----|-5~--|-----|-7~--|
E|-2~--|-----|-5~--|-----|

Verse A
G|-----|-----|-----|-----|
D|-----|-----|-----|-----|  x3
A|-----|-5~--|-----|-7~--|
E|-2~--|-----|-5~--|-----|

Chorus A
G|--------|-----|------|----|
D|--------|-----|------|----|
A|-2~---4~|-5~--|----7~|-5~-|
E|--------|-----|-2~---|----|

Bridge A
G|------|-------|
D|------|-------|  x4
A|-0~---|-2~--5~|
E|------|-------|

Chorus B
G|--------|-----------------|-----------------|-----------------|
D|--------|-----------------|-----------------|-----------------|
A|-2~---4~|-555-555-555-555-|-----------------|-555-555-555-555-|
E|--------|-----------------|-222-222-000-000-|-----------------|

G|------------------|-----------------|-----------------|--------------|
D|------------------|-----------------|-----------------|--------------|
A|-222-222-222--2-4-|-555-555-555-555-|-----------------|-555-555-555-555-|
E|------------------|-----------------|-222-222-000-000-|--------------|

Bridge B   “Please understand…”
G|------------------|-----------------|-----------------|--------------|
D|------------------|-----------------|-----------------|--------------|
A|-444-444-444--4---|-----------------|-555-555-555-555-|--------------|
E|----------------2-|-222-222-222-222-|-----------------|-222-222-222-222-|

G|-----------------|
D|-----------------|
A|-555-555-555-555-|
E|-----------------|

Verse B
G|-----------------|-----------------|-----------------|--------------|
D|-----------------|-----------------|-----------------|--------------|
A|-----------------|-555-555-555-555-|-----------------|--------------|
E|-222-222-222-222-|-----------------|-555-555-555-555-|-000-000-000-000-|

 	Chorus C / Outro starts @ double bars
G|-----------------|-----------------|-----------------|---------||---------
D|-----------------|-----------------|-----------------|---------||---------
A|-----------------|-555-555-555-555-|-----------------|---------||---------
E|-222-222-222-222-|-----------------|-555-555-555-555-|-000-000-||-000-000-

G|-------------------|------------------------|
D|-----------------|----------------------|
A|-----------------|-555-555-555-555--0~--|
E|-222-222-222-222-|----------------------|




Come in after first chorus

Pre-Verse A
Verse A
Chorus A x2, but add an A4 at the end of the second time
Bridge
Chorus B
Bridge B
Verse B
Chorus C/Outro
Suggest correction
Creating personal tab
Creating personal tab
You can edit any tab online and save it as your Personal.

You can edit, replace or remove any tab part or add personal notes – all changes will be seen only by you.

Personal tabs can be accessed anytime from any device, even offline.
Learn more »
comments
print report bad tab
1 comment total.
0 reply
MusicMaster94 52 Feb 21, 2010 07:41 AM

Well done its accurate except for the chorus i just think you put too many notes in each 8 beat bar.
But well done.

guest
You may want to rate the tab now too:
select rating
Wanna post a correction for this tab? Suggest correction