Oops, an error
Loading. Please wait.
We have an official No It Isnt tab made by UG professional guitarists. Check out the tab »
×
by +44
68,516 views 21 this week
19 commentsread comments
1 2 3 4 5
x 22
add to favorites
×
Save as Personal and add changes to this tab that will be seen only by you. Learn more ›
×
You can save this tab as Personal to edit and correct it or add notes. All changes will be seen only by you. Learn more »
launch autoscroll
font size
0
reset
how to read this tab
guitar tuner
edit
Autoscroll
slow
fast
+/-
esc
set tempo
stop
Difficulty
----------------------------------------------------------------------------
                             No It Isn't - Plus 44
----------------------------------------------------------------------------
Tabbed by: Tyler The Great!lmfao... kay?
Email: Atticus.Black@hotmail.com

Tuning: standard

*Intro and Verse*(On last bar of the verse, its open on the E and 2 on the A instead of the other three)
e|--------------------------------------------|
B|--------------------------------------------|
G|-66666666-----------------------------------|
D|-4444444477777777222222229999999------------|
A|---------55555555000000007777777------------|
E|--------------------------------------------| Play this over until the chorus

*Chorus*
e|----------------------------------------------------|
B|----------------------------------------------------|
G|---------------------6-6-66-------------------------|
D|-444444-4/6-77777777-4-4-44------7-7-77-7-7-77------|
A|-222222-2/4-55555555-------2-2-225-5-55-5-5-55------|
E|---------------------------0-0-00-------------------|

e|----------------------------------------------------|
B|----------------------------------------------------|
G|---------------------6-6-66-------------------------|
D|-444444-4/6-77777777-4-4-44------7-7-77-7-7-77------|
A|-222222-2/4-55555555-------2-2-225-5-55-4-4-44------|
E|---------------------------0-0-00-------------------|

*Intro and Verse again till Chorus*

*Chorus again*


*Bridge* Gtr.1
e|-----------------------------------|
B|-----------------------------------|
G|-----------------------------------|
D|-----------------4444444477777777--|
A|-77777777777777772222222255555555--|
E|-5555555555555555------------------|x4

*Bridge* Gtr.2
e|----------------0----|
B|---------------------|
G|--6-76-6-76-6-76--76-|
D|-7----7----7-----7---|
A|---------------------|
E|---------------------|x4

*Chorus Electric till end*

| /  slide up
| \  slide down
| h  hammer-on
| p  pull-off
| ~  vibrato
| +  harmonic
| x  Mute note
============================================================================

            
            
Suggest correction
Creating personal tab
Creating personal tab
You can edit any tab online and save it as your Personal.

You can edit, replace or remove any tab part or add personal notes – all changes will be seen only by you.

Personal tabs can be accessed anytime from any device, even offline.
Learn more »
comments
print report bad tab
19 comments total. Showing first comments.
0 reply
Donkey Fly 2,636 Dec 24, 2005 11:25 PM

Good Tab , There is like a backing piano which i'm gonna tab and put in my own version though when i get time to tab one, but still 5/5

0 reply
noodlez_310 10 Jan 05, 2006 01:47 PM

The intro sounds just like the intro to The Crowd by Op Ivy (same notes, different frets). good tab

0 reply
Ibanez3134 10 Sep 30, 2006 06:07 AM

if u listen reall really closly ull find that the guitar just plays the one cord while the bass changes note

guest
Wanna post a correction for this tab? Suggest correction