Oops, an error
Loading. Please wait.
We have an official No It Isnt tab made by UG professional guitarists. Check out the tab »
×
by +44
8,292 views 6 this week
3 commentsread comments
1 2 3 4 5
x 8
add to favorites
×
Save as Personal and add changes to this tab that will be seen only by you. Learn more ›
×
You can save this tab as Personal to edit and correct it or add notes. All changes will be seen only by you. Learn more »
launch autoscroll
font size
0
reset
how to read this tab
guitar tuner
edit
Autoscroll
slow
fast
+/-
esc
set tempo
stop
Author
Difficulty
Tabbers playing skills
                                   NO IT ISN'T
                             As recorded by Plus 44

Words and Music by Plus 44
Transcribed by Aaron Hetherington (Donkey Fly)

Guitar 1 = Clean
Guitar 2 = Piano (Plays Chords Behind Guitar)
Guitar 3 = Distorted

This Is Plus 44's latest record. I gotta say it is a very impressive track and looking
forward for the album. You can listen to the track at www.plus-44.com or
www.plusfortyfour.com  or i can send you track via e-mail (thedonkeyfly@hotmail.com)
If i get alot of people e-mailing me i will upload it and put it as a link on here.
Enjoy

 Intro
  Moderate Q=120
 4/4
  Gtr I
|-------------------------------|---------------------|
|-------------------------------|---------------------|
|-------------------------------|---------------------|
|-11-11-11-11-11-11-11-11-11-11-|-7-7-7-7-7-7-7-7-7-7-|
|--9--9--9--9--9--9--9--9--9--9-|-5-5-5-5-5-5-5-5-5-5-|
|-------------------------------|---------------------|


|---------------------|---------------------|
|---------------------|---------------------|
|---------------------|---------------------|
|-2-2-2-2-2-2-2-2-2-2-|-9-9-9-9-9-9-9-9-9-9-|
|-0-0-0-0-0-0-0-0-0-0-|-7-7-7-7-7-7-7-7-7-7-|
|---------------------|---------------------|


|--------------------------------|---------------------------|
|--------------------------------|---------------------------|
|--------------------------------|---------------------------|
|--11-11-11-11-11-11-11-11-11-11-|---7-7-7-7-7-7-----7-7-7-7-|
|---9--9--9--9--9--9--9--9--9--9-|---5-5-5-5-5-5-----5-5-5-5-|
|--------------------------------|---------------------------|
|
| Gtr II
|--------------------------------|---------------------------|
|-^-7----------------------------|-^12-----------^10---------|
|-^11----------------------------|-^11-----------^11---------|
|--------------------------------|---------------------------|
|--------------------------------|---------------------------|
|--------------------------------|---------------------------|


|-----------------------|-----------------------------|
|-----------------------|-----------------------------|
|-----------------------|-----------------------------|
|---2-2-2-2-2-2-2-2-2-2-|---9-9-9-9-9-9-----9-9-9-9---|
|---0-0-0-0-0-0-0-0-0-0-|---7-7-7-7-7-7-----7-7-7-7---|
|-----------------------|-----------------------------|
|
|-----------------------|-----------------------------|
|-^12-------------------|-^10-----------^-9-----------|
|-^11-------------------|-^11-----------^11-----------|
|-----------------------|-----------------------------|
|-----------------------|-----------------------------|
|-----------------------|-----------------------------|


   Verse
||---------------------------------|---------------------------|
||o--------------------------------|---------------------------|
||---------------------------------|---------------------------|
||---11-11-11-11-11-11-11-11-11-11-|---7-7-7-7-7-7-----7-7-7-7-|
||o---9--9--9--9--9--9--9--9--9--9-|---5-5-5-5-5-5-----5-5-5-5-|
||---------------------------------|---------------------------|
|
||---------------------------------|---------------------------|
||o-^-7----------------------------|-^12-----------^10---------|
||--^11----------------------------|-^11-----------^11---------|
||---------------------------------|---------------------------|
||o--------------------------------|---------------------------|
||---------------------------------|---------------------------|


|-----------------------|-----------------------------||
|-----------------------|----------------------------o||
|-----------------------|-----------------------------||
|---2-2-2-2-2-2-2-2-2-2-|---9-9-9-9-9-9-----9-9-9-9---||
|---0-0-0-0-0-0-0-0-0-0-|---7-7-7-7-7-7-----7-7-7-7--o||
|-----------------------|-----------------------------||
|
|-----------------------|-----------------------------||
|-^12-------------------|-^10-----------^-9----------o||
|-^11-------------------|-^11-----------^11-----------||
|-----------------------|-----------------------------||
|-----------------------|----------------------------o||
|-----------------------|-----------------------------||


 Chorus
|---------------------|---------------------|
|---------------------|---------------------|
|---------------------|---------------------|
|-4-4-4-4-4-4-4-4-4-6-|-7-7-7-7-7-7-7-7-7-7-|
|-2-2-2-2-2-2-2-2-2-4-|-5-5-5-5-5-5-5-5-5-5-|
|---------------------|---------------------|
|
|---------------------|---------------------|
|---------------------|---------------------|
|---------------------|---------------------|
|-4-------------------|---------------------|
|-2-------------------|---------------------|
|---------------------|---------------------|


|--------------------------|----------------------|
|--------------------------|----------------------|
|--------------------------|----------------------|
|-11-11-11-11-11-9-9-9-9-9-|-7-7-7-7-7-7-7-7-7-7--|
|--9--9--9--9--9-7-7-7-7-7-|-5-5-5-5-5-5-5-5-5-5--|
|--------------------------|----------------------|
|
|--------------------------|----------------------|
|--------------------------|----------------------|
|--------------------------|----------------------|
|--------------------------|----------------------|
|--------------------------|----------------------|
|--------------------------|----------------------|


|---------------------|---------------------|
|---------------------|---------------------|
|---------------------|---------------------|
|-4-4-4-4-4-4-4-4-4-6-|-7-7-7-7-7-7-7-7-7-7-|
|-2-2-2-2-2-2-2-2-2-4-|-5-5-5-5-5-5-5-5-5-5-|
|---------------------|---------------------|


|--------------------------|----------------------|
|--------------------------|----------------------|
|--------------------------|----------------------|
|-11-11-11-11-11-9-9-9-9-9-|-7-7-7-7-7-7-7-7-7-7--|
|--9--9--9--9--9-7-7-7-7-7-|-5-5-5-5-5-4-4-4-4-4--|
|--------------------------|----------------------|


|--------------------------------|---------------------------|
|--------------------------------|---------------------------|
|--------------------------------|---------------------------|
|--11-11-11-11-11-11-11-11-11-11-|---7-7-7-7-7-7-----7-7-7-7-|
|---9--9--9--9--9--9--9--9--9--9-|---5-5-5-5-5-5-----5-5-5-5-|
|--------------------------------|---------------------------|
|
| Gtr II
|--------------------------------|---------------------------|
|-^-7----------------------------|-^12-----------^10---------|
|-^11----------------------------|-^11-----------^11---------|
|--------------------------------|---------------------------|
|--------------------------------|---------------------------|
|--------------------------------|---------------------------|


|-----------------------|-----------------------------|
|-----------------------|-----------------------------|
|-----------------------|-----------------------------|
|---2-2-2-2-2-2-2-2-2-2-|---9-9-9-9-9-9-----9-9-9-9---|
|---0-0-0-0-0-0-0-0-0-0-|---7-7-7-7-7-7-----7-7-7-7---|
|-----------------------|-----------------------------|
|
|-----------------------|-----------------------------|
|-^12-------------------|-^10-----------^-9-----------|
|-^11-------------------|-^11-----------^11-----------|
|-----------------------|-----------------------------|
|-----------------------|-----------------------------|
|-----------------------|-----------------------------|


   Verse 2
||---------------------------------|---------------------------|
||o--------------------------------|---------------------------|
||---------------------------------|---------------------------|
||---11-11-11-11-11-11-11-11-11-11-|---7-7-7-7-7-7-----7-7-7-7-|
||o---9--9--9--9--9--9--9--9--9--9-|---5-5-5-5-5-5-----5-5-5-5-|
||---------------------------------|---------------------------|
|
||---------------------------------|---------------------------|
||o-^-7----------------------------|-^12-----------^10---------|
||--^11----------------------------|-^11-----------^11---------|
||---------------------------------|---------------------------|
||o--------------------------------|---------------------------|
||---------------------------------|---------------------------|


                                                      3x
|-----------------------|-----------------------------||
|-----------------------|----------------------------o||
|-----------------------|-----------------------------||
|---2-2-2-2-2-2-2-2-2-2-|---9-9-9-9-9-9-----9-9-9-9---||
|---0-0-0-0-0-0-0-0-0-0-|---7-7-7-7-7-7-----7-7-7-7--o||
|-----------------------|-----------------------------||
|
|                                                     3x
|-----------------------|-----------------------------||
|-^12-------------------|-^10-----------^-9----------o||
|-^11-------------------|-^11-----------^11-----------||
|-----------------------|-----------------------------||
|-----------------------|----------------------------o||
|-----------------------|-----------------------------||


 Chorus
|---------------------|---------------------|
|---------------------|---------------------|
|---------------------|---------------------|
|-4-4-4-4-4-4-4-4-4-6-|-7-7-7-7-7-7-7-7-7-7-|
|-2-2-2-2-2-2-2-2-2-4-|-5-5-5-5-5-5-5-5-5-5-|
|---------------------|---------------------|
|
|---------------------|---------------------|
|---------------------|---------------------|
|---------------------|---------------------|
|-4-------------------|---------------------|
|-2-------------------|---------------------|
|---------------------|---------------------|


|--------------------------|----------------------|
|--------------------------|----------------------|
|--------------------------|----------------------|
|-11-11-11-11-11-9-9-9-9-9-|-7-7-7-7-7-7-7-7-7-7--|
|--9--9--9--9--9-7-7-7-7-7-|-5-5-5-5-5-5-5-5-5-5--|
|--------------------------|----------------------|
|
|--------------------------|----------------------|
|--------------------------|----------------------|
|--------------------------|----------------------|
|--------------------------|----------------------|
|--------------------------|----------------------|
|--------------------------|----------------------|


|---------------------|---------------------|
|---------------------|---------------------|
|---------------------|---------------------|
|-4-4-4-4-4-4-4-4-4-6-|-7-7-7-7-7-7-7-7-7-7-|
|-2-2-2-2-2-2-2-2-2-4-|-5-5-5-5-5-5-5-5-5-5-|
|---------------------|---------------------|


|--------------------------|----------------------|
|--------------------------|----------------------|
|--------------------------|----------------------|
|-11-11-11-11-11-9-9-9-9-9-|-7-7-7-7-7-7-7-7-7-7--|
|--9--9--9--9--9-7-7-7-7-7-|-5-5-5-5-5-4-4-4-4-4--|
|--------------------------|----------------------|


                                                          4x
||----------------------------|---------------------------||
||o---------------------------|--------------------------o||
||----------------------------|---------------------------||
||----------------------------|-------------7---7-7-7-7---||
||o-7-7-7-7-7--7--7-7-7-7---7-|-9-9-9-9-9---5---5-5-5-5--o||
||--5-5-5-5-5--5--5-5-5-5---5-|-7-7-7-7-7-----------------||
|
|                                                         4x
||----------------------------|-----------0---0-----------||
||o---------------------------|--------------------------o||
||----6-7-6---(6)-6---7---7-6-|---6-7-6---------7-6---4---||
||--7-------------------------|-7-------------------------||
||o---------------------------|--------------------------o||
||----------------------------|---------------------------||


 Chorus
  Gtr III
|-------------|---------------------|
|-------------|---------------------|
|-4---------6-|-7-7-7-7-7-7-7-7-7-7-|
|-4---------6-|-7-7-7-7-7-7-7-7-7-7-|
|-2---------4-|-5-5-5-5-5-5-5-5-5-5-|
|-------------|---------------------|
|
|-------------|---------------------|
|-------------|---------------------|
|-------------|---------------------|
|-4-----------|---------------------|
|-2-----------|---------------------|
|-------------|---------------------|


|--------------------------|----------------------|
|--------------------------|----------------------|
|-11-11-11-11-11-9-9-9-9-9-|-7-7-7-7-7-7-7-7-7-7--|
|-11-11-11-11-11-9-9-9-9-9-|-7-7-7-7-7-7-7-7-7-7--|
|--9--9--9--9--9-7-7-7-7-7-|-5-5-5-5-5-5-5-5-5-5--|
|--------------------------|----------------------|
|
|--------------------------|----------------------|
|--------------------------|----------------------|
|--------------------------|----------------------|
|--------------------------|----------------------|
|--------------------------|----------------------|
|--------------------------|----------------------|


|---------------------|---------------------|
|---------------------|---------------------|
|-4-4-4-4-4-4-4-4-4-6-|-7-7-7-7-7-7-7-7-7-7-|
|-4-4-4-4-4-4-4-4-4-6-|-7-7-7-7-7-7-7-7-7-7-|
|-2-2-2-2-2-2-2-2-2-4-|-5-5-5-5-5-5-5-5-5-5-|
|---------------------|---------------------|


|--------------------------|----------------------|
|--------------------------|----------------------|
|-11-11-11-11-11-9-9-9-9-9-|-7-7-7-7-7-6-6-6-6-6--|
|-11-11-11-11-11-9-9-9-9-9-|-7-7-7-7-7-7-7-7-7-7--|
|--9--9--9--9--9-7-7-7-7-7-|-5-5-5-5-5-4-4-4-4-4--|
|--------------------------|----------------------|


 Outro
|---------------------|---------------------|----------|--------|
|---------------------|---------------------|----------|--------|
|-------------------6-|-7-7-7-7-7-7-7-7-7-7-|-2--------|-(2)----|
|-4-4-4-4-4-4-4-4-4-6-|-7-7-7-7-7-7-7-7-7-7-|-2--------|-(2)----|
|-4-4-4-4-4-4-4-4-4-4-|-5-5-5-5-5-5-5-5-5-5-|-0--------|-(0)----|
|-2-2-2-2-2-2-2-2-2---|---------------------|----------|--------|

Lyrics

Please understand
This isn’t just goodbye
This is I can’t stand you
This is where the road crashed into the ocean,
It rises all around me and now we're barely breathing
A thousand faces we'll choose to ignore

Curse my enemies forever
Let’s slit our wrists and burn down something beautiful
This desperation leaves me overjoyed
With fading lights that lead us past the lives that we destroy

I listen to you cry
I cry for less intention
But both my hands are tied
And I’m pushed into the deep end

I listen to you talk
But talk is cheap
And my mouth is filled with blood
From trying not to speak

So search for an excuse
And someone to believe you
And for interesting moves
I’m empty with the need to

Curse my enemies forever
Let’s slit our wrists and burn down something beautiful
This desperation leaves me overjoyed
With fading lights that lead us past the lives that we destroy

Curse my enemies forever
Let’s slit our wrists and burn down something beautiful
This desperation is leaving me overjoyed
With fading lights that lead us past the lives that we destroy

Please understand
This isn’t just goodbye
This is I can’t stand you


Thanks Again !

Suggest correction
Creating personal tab
Creating personal tab
You can edit any tab online and save it as your Personal.

You can edit, replace or remove any tab part or add personal notes – all changes will be seen only by you.

Personal tabs can be accessed anytime from any device, even offline.
Learn more »
comments
print report bad tab
3 comments total.
0 reply
peepee182 267 Jun 05, 2006 02:55 PM

The acutaul tab is on there site

0 reply
Bored_Azian_92 20 Aug 15, 2006 09:06 AM

the chords sound 2 me like a F#m barre, and open D,A,and E chords but the tabs still good.

0 reply
river_of_souls 64 Sep 22, 2006 06:14 PM

Im going to cry... this song is about blink 182 separation,
I love blink 182 but i dont like tom Mark and travis.

Whatever! good luck and good tab

guest
You may want to rate the tab now too:
select rating
Wanna post a correction for this tab? Suggest correction