Oops, an error
Loading. Please wait.
We have an official No It Isnt tab made by UG professional guitarists. Check out the tab »
×
by +44
2,230 views 1 this week
3 commentsread comments
1 2 3 4 5
x 3
add to favorites
×
Save as Personal and add changes to this tab that will be seen only by you. Learn more ›
×
You can save this tab as Personal to edit and correct it or add notes. All changes will be seen only by you. Learn more »
launch autoscroll
font size
0
reset
guitar tuner
edit
Autoscroll
slow
fast
+/-
esc
set tempo
stop
Author
----------------------------------------------------------------------------
			     No, It Isn't - +44 W.Y.H.S.B
----------------------------------------------------------------------------

MANY OF YOU HAVE PUT THE SINGLE VERSON OF NO IT INS'T WITH THE SHORT ENDING THIS IS THE 
OF NO, IT ISN'T NOT THE SINGLE THAT YOU COULD DOWNLOAD
EARLY IN THE YERR BUT ON THE ABLUM WHEN YOUR HEART STOPS BEATING
Tabbed By : Andociompa
Tuning:standard
/ SLIDE TO
Intro/verse
G|--------------------------------------------------------------|
D|--------------------------------------------------------------|
A|--555555555/-000000000/-77777777------------------------------|
E|--------------------------------------------------------------|

Chorus
G|--------------------------------------------------------------|
D|--------------------------------------------------------------|
A|-22222/4/5-9-7777-555555555-----------------------------------|
E|--------------------------------------------------------------|

Chorus
G|--------------------------------------------------------------|
D|--------------------------------------------------------------|
A|-22222/4/5555555-9-7777-555555555-----------------------------|
E|--------------------------------------------------------------|

G|--------------------------------------------------------------|
D|--------------------------------------------------------------|
A|-22222/4/5555555-9-7777-555555555-44444444--------------------|
E|--------------------------------------------------------------|


verse
G|--------------------------------------------------------------|
D|--------------------------------------------------------------|
A|--555555555/-000000000/-77777777------------------------------|
E|--------------------------------------------------------------|

Chorus
G|--------------------------------------------------------------|
D|--------------------------------------------------------------|
A|-22222/4/5555555-9-7777-555555555-----------------------------|
E|--------------------------------------------------------------|

G|--------------------------------------------------------------|
D|--------------------------------------------------------------|
A|-22222/4/5555555-9-7777-555555555-44444444--------------------|
E|--------------------------------------------------------------|

Bridge
G|--------------------------------------------------------------|
D|--------------------------------------------------------------|
A|----------5~--------------------------------------------------|
E|------5~-7~---------------------------------------------------|

outro
G|--------------------------------------------------------------|
D|--------------------------------------------------------------|
A|-22222/4/5555555-9999999-7777-555555555555555555--------------|
E|--------------------------------------------------------------|

G|--------------------------------------------------------------|
D|--------------------------------------------------------------|
A|-22222/4/5555555-9999999-7777-555555555-44444444--------------|
E|--------------------------------------------------------------|

G|----------------------------------------------------------------------|
D|----------------------------------------------------------------------|
A|--22222222-5555555---------5555555--------555555------222222-5555555--|
E|------------------55555555---------2222222------555555----------------|

G|--------------------------------------------------------------|
D|--------------------------------------------------------------|
A|---------------------222222222--------------------------------|
E|-55555555--444444444------------------------------------------|

G|--------------------------------------------------------------|
D|--------------------------------------------------------------|
A|---------------55555555555--0~--------------------------------|
E|---22222222222------------------------------------------------|
Suggest correction
Creating personal tab
Creating personal tab
You can edit any tab online and save it as your Personal.

You can edit, replace or remove any tab part or add personal notes – all changes will be seen only by you.

Personal tabs can be accessed anytime from any device, even offline.
Learn more »
Give kudos to tab author, rate the tab!
1 2 3 4 5
comments
print report bad tab
3 comments total.
-1 reply
Harry.B182! 51 Nov 23, 2006 07:24 AM

hey u no the comment u left on my blink greatest hits tabs bout it bein 10 10 10 instead of 5 well i doesnt matter cuz they r the same note and ive seen em live and he played it on 5 so u can suck my balls! cuz the other lads or lasses that looked at it sed it was good and 1 was a guitarist

-1 reply
Harry.B182! 51 Nov 23, 2006 07:25 AM

however u hav a gd taste in music wiv AVA +44 and blink so nice 1

0 reply
andociompa 130 Nov 29, 2006 05:35 PM

f u c k you harry.b182!

guest
You may want to rate the tab now too:
select rating
Wanna post a correction for this tab? Suggest correction