Oops, an error
Loading. Please wait.

Weatherman bass

version 2
version 2

Whole song

Interactive

by +44
2,699 views 1 this week
3 commentsread comments
1 2 3 4 5
x 4
add to favorites
×
Save as Personal and add changes to this tab that will be seen only by you. Learn more ›
×
You can save this tab as Personal to edit and correct it or add notes. All changes will be seen only by you. Learn more »
launch autoscroll
font size
0
reset
guitar tuner
edit
Autoscroll
slow
fast
+/-
esc
set tempo
stop
intro

g/---------------------------------------------------------|
d/---------------------------------------------------------|
a/-0~----------0~------3-----------------------------------|X ?
e/-------1~---------------1~-------------------------------|

verse
g/---------------------------------------------------------|
d/---------------------------------------------------------|
a/-0~----------0~------3-----------------------------------|X ?
e/-------1~---------------1~-------------------------------|

chourus

g/---------------------------------------------------------------|
d/---------------------------------------------------------- X 1-|
a/-000000000000-23333333333------------0000000000-233333333------|
e/--------------------------33-55-777----------------------------|

intlude

g/---------------------------------------------------------|
d/---------------------------------------------------------|
a/-0~----------0~------3-----------------------------------|X ?
e/-------1~---------------1~-------------------------------|

verse 2

g/---------------------------------------------------------|
d/---------------------------------------------------------|
a/-0~----------0~------3-----------------------------------|X ?
e/-------1~---------------1~-------------------------------|

chourus

g/---------------------------------------------------------------|
d/---------------------------------------------------------- X 2-|
a/-000000000000-23333333333------------0000000000-233333333------|
e/--------------------------33-55-777----------------------------|

brigde


g/----------------------------------------------------------|
d/----------------------------------------------------------|
a/-0~----------0~------3--------------------------------X 2-|
e/-------1~---------------1~--------------------------------|
different distortion


chourus

g/---------------------------------------------------------------|
d/---------------------------------------------------------- X 2-|
a/-000000000000-23333333333------------0000000000-233333333------|
e/--------------------------33-55-777----------------------------|

for the chourus that exacty what he played live.

            
            
Suggest correction
Creating personal tab
Creating personal tab
You can edit any tab online and save it as your Personal.

You can edit, replace or remove any tab part or add personal notes – all changes will be seen only by you.

Personal tabs can be accessed anytime from any device, even offline.
Learn more »
comments
print report bad tab
3 comments total.
0 reply
childrenatplay4 115 Dec 20, 2006 05:33 PM

sorry last is a lot more then just 2 my fault

0 reply
rastabass 308 Dec 03, 2007 05:20 PM

nice tab, i tabbed out this song a while ago on bass and decided to play it again today for the first time in a
while.

these arent corrections but i added a few things to make the song a bit more fun to play:

verse


g/---------------------------------------------------------|
d/----------------------------------------------------
-----|
a/-0~----------0~----0h3-----------------------------------|X
?
e/-------1~---------------1~-------------------------------|

chourus

g/----------------------------------------
-----------------------|
d/------------------------------------------------------320-320--
a/-000000000000-23333333333
------------0000000000-233333------|
e/--------------------------3h5--3h7----------------------------|

i add that A
hammer on to the C in the VERSE which i believe is actually in the song, and for the chorus i play that C to A to B run
with hammer ons, then at the end of the chorus I add that F,E,D run.

It makes the song more fun to play and i think
he really does play a little run towards the end of the chorus, so you can use that if you want to.

nice song

0 reply
rastabass 308 Dec 03, 2007 05:20 PM

dang that comment didnt really work.......... just ignore it, nice tab

guest
You may want to rate the tab now too:
select rating
Wanna post a correction for this tab? Suggest correction