Oops, an error
Loading. Please wait.

Weatherman Acoustic tab

version 2
version 2

Whole song

Interactive

by +44
12,025 views 3 this week
4 commentsread comments
1 2 3 4 5
x 9
add to favorites
×
Save as Personal and add changes to this tab that will be seen only by you. Learn more ›
×
You can save this tab as Personal to edit and correct it or add notes. All changes will be seen only by you. Learn more »
launch autoscroll
font size
0
reset
how to read this tab
guitar tuner
edit
Autoscroll
slow
fast
+/-
esc
set tempo
stop
Author
Weatherman Acoustic Tabs
Tabbed by: Tom Lee
Tuning: Standard
This is the first tab for this song I think so correct me if Im wrong. This is what Ive 
out oki =) Enjoy!


1st Guitar

Throughout the whole song

e|-------|
B|-------|
G|-2-----|
D|-2---3-|
A|-0---3-|
E|-----1-| or you can use:


e|-0---0-|
B|-0---0-|
G|-2---0-|
D|-2---3-|
A|-0---3-| It sounds nice with open strings too.
E|-0---1-| Or you can switch between them.


Theres also this weird bass synth type thing or summit that goes:

e|---------|
B|---------|
G|---------|
D|---------|
A|-0-------|
E|-----1-3-| The 3 is optional, I just like to use it =]


2nd Guitar

Intro/Verse 1

e|-----0-------|
B|---1-------3-|
G|-2-----------|
D|-------------|
A|-------------|
E|-------------|


1st Chorus

e|-0---0---0---1-0-    -0---0---0-0-----------|
B|-----------1-----    --1-1-1-1----3-3-1-1-0-|
G|----------------- x3 -----------------------|
D|-----------------    -----------------------|
A|-----------------    -----------------------|
E|-----------------    -----------------------|
PM           .                       . . . .

Im not entirely sure about the palm muted 1's but I do it anyway.
Also I like to bend the strings at the end of the chorus.


Verse 2

e|------------------3---------------------|
B|-1---3-----1---3-----1---3-----1---3----|
G|--------------------------------------0-|
D|----------------------------------------| x4
A|----------------------------------------|
E|----------------------------------------|


2nd Chorus

e|-0---0---0---1-0-          -0---0---0-0-----------|
B|--1-1-1-1--1-----          --1-1-1-1----3-3-1-1-0-|
G|-----------------          -----------------------|
D|----------------- x3 then: -----------------------| Both x2
A|-----------------          -----------------------|
E|-----------------          -----------------------|

This time you can hear the ones more clearly.
You dont have to palm mute it but you can if you want to.


Interlude

e|------------------------------------------------------------------|
B|------0--1--0-----------------------------0--1--0-----------------|
G|-2-----------------------0--2--------2-----------------------0--2-|
D|----2----------2----------------3-------2----------2--------------|
A|----------------------3-----------3-----------------------3-------|
E|------------------1-1---------------------------------1-1---------|


3rd Chorus

e|-0---0---0---1-0-          -0---0---0-0-----------|
B|--1-1-1-1--1-----          --1-1-1-1----3-3-1-1-0-|
G|-----------------          -----------------------|
D|----------------- x3 then: -----------------------|
A|-----------------          -----------------------|
E|-----------------          -----------------------|

You carry this on till the end.


3rd Guitar

3rd Chorus

e|------------------3---------------------|
B|-1---3-----1---3-----1---3-----1---3----|
G|--------------------------------------0-|
D|----------------------------------------|
A|----------------------------------------|
E|----------------------------------------|

Start this the second time on the 3rd Chorus till the end.

            
            
Suggest correction
Creating personal tab
Creating personal tab
You can edit any tab online and save it as your Personal.

You can edit, replace or remove any tab part or add personal notes – all changes will be seen only by you.

Personal tabs can be accessed anytime from any device, even offline.
Learn more »
comments
print report bad tab
4 comments total. Showing first comments.
0 reply
Tomamo5 90 Jan 21, 2007 04:58 AM

Fuck, btw, you can just use the chords too...lmao.

e|-0---1-|
B|-1---1-|
G|-2---1-|
D|-2---3-|
A|-0---3-|
E|-0---1-|

0 reply
steffzeng 62 Feb 03, 2007 04:00 AM

This is the right bridge.... one note was wrong

e|------------------------------------------------------------------|
B|------0--1--------------------------------0--1--------------------|
G|-2----------2------------0--2--------2----------2------------0--2-|
D|----2----------2----------------3-------2----------2--------------|
A|----------------------3-----------3-----------------------3-------|
E|------------------1-1---------------------------------1-1---------|

0 reply
DarkDallasNight 182 Feb 06, 2007 02:49 PM

strumming pattern? some2 plz

guest
You may want to rate the tab now too:
select rating
Wanna post a correction for this tab? Suggest correction