Oops, an error
Loading. Please wait.
We have an official When Your Heart Stops Beating tab made by UG professional guitarists. Check out the tab »
×
by +44
10,062 views 1 this week
8 commentsread comments
1 2 3 4 5
x 4
add to favorites
×
Save as Personal and add changes to this tab that will be seen only by you. Learn more ›
×
You can save this tab as Personal to edit and correct it or add notes. All changes will be seen only by you. Learn more »
launch autoscroll
font size
0
reset
guitar tuner
edit
Autoscroll
slow
fast
+/-
esc
set tempo
stop
Author
OK well Rather than just write out all the pieces myself, I just made a collection of
of my own tabs, and the best ones on UG.  Credit for the tabber is givin after the song.

Lycanthrope
Tabbed by: Ibanezbass27

Intro
G|-------------------------------------------------------------------------|
D|-------------------------------------------------------------------------|
A|-3-000000000000-6777–333333-55555575-3-000000000000-6777-33333333--------|x2
E|-----------------------------------------------------------------33333333|


Verse
G|--------------------------------------------------------------------|
D|--------------------------------------------------------------------|
A|000000000000-222-33333333-55555555-000000000000-222-33333333--------| x2
E|------------------------------------------------------------11111111|

Pre-Verse
G|-------------------------------------------------------------------------|
D|-------------------------------------------------------------------------|
A|-3-000000000000-6777–333333-55555575-3-000000000000-6777-33333333--------|
E|-----------------------------------------------------------------33333333|

Verse
G|--------------------------------------------------------------------|
D|--------------------------------------------------------------------|
A|000000000000-222-33333333-55555555-000000000000-222-33333333--------|x2
E|------------------------------------------------------------11111111|

Chorus
G|---------------------------------|
D|---------------------------------|
A|333333335555555500000000000000000| x4
E|---------------------------------|

Pre-Verse
G|-------------------------------------------------------------------------|
D|-------------------------------------------------------------------------|
A|-3-000000000000-6777–333333-55555575-3-000000000000-6777-33333333--------|
E|-----------------------------------------------------------------33333333|


Verse
G|--------------------------------------------------------------------|
D|--------------------------------------------------------------------|
A|000000000000-222-33333333-55555555-000000000000-222-33333333--------|x2
E|------------------------------------------------------------11111111|


Chorus
G|----------------------------------|
D|----------------------------------|
A|3333333355555555 00000000000000000| x4
E|----------------------------------|


Bridge
G|---------------------------------------------------------------------|
D|---------------------------------------------------------------------|
A|333333333333333355555555555555555000000000000000000000000------------|   x2
E|-------------------------------------------------------------44444444|


Chorus
G|----------------------------------|
D|----------------------------------|
A|3333333355555555 00000000000000000| x4
E|----------------------------------|

Outtro
G|---------------------------------------------------------------------------|
D|---------------------------------------------------------------------------|
A|3-000000000000-6777–333333-55555575-3-000000000000-6777-33333333-----------|x2
E|----------------------------------------------------------------33333333-3~|


------------------------------------------------------------------------------------------


Baby, Come On
Tabbed by timasahh


Intro: [No Words, No Bass]

Verse One: [She's a pretty girl. She's always falling down...]

|-------------------|-------------------|
|-------------------|-------------------|
|-5~----5~----------|-5~----5~----------|
|----3~----3~-5~-3~-|----3~----3~-3~----|

Chorus: [Quit crying your eyes out. Quit crying your eyes out...]

|------------------------------------|------------------------------------|
|------------------------------------|------------------------------------|
|-0000000-----------2222222----------|-0000000-----------2222222----------|
|---------333333333---------33333333-|---------333333333---------33333333-|

Chorus: [Quit crying your eyes out, Baby.]

|------------------|-----|
|------------------|-----|
|-0000000----------|-5~~-|
|---------33333333-|-----|

Bridge: [No Words, No Bass]

Verse Two: [And she said, "I think we're running out of alcohal...]

|-----------------------------------|-----------------------------------|
|-----------------------------------|-----------------------------------|
|-5555555555555555------------------|-5555555555555555------------------|
|------------------3333333333333333-|------------------3333333333333333-|

Verse Two: [But they won't ever remember.]

|-------------------|
|-------------------|
|-0000000-----------|
|---------333333333-|

Verse Two: [So please take me far away, before I melt into the ground..."]

|-----------------------------------|-----------------------------------|
|-----------------------------------|-----------------------------------|
|-5555555555555555------------------|-5555555555555555------------------|
|------------------3333333333333333-|------------------3333333333333333-|

Chorus: [Quit crying your eyes out. Quit crying your eyes out...]

|------------------------------------|------------------------------------|
|------------------------------------|------------------------------------|
|-0000000-----------2222222----------|-0000000-----------2222222----------|
|---------333333333---------33333333-|---------333333333---------33333333-|

Chorus: [Quit crying your eyes out, Baby.]

|------------------|-----|
|------------------|-----|
|-0000000----------|-5~~-|
|---------33333333-|-----|

Bridge: [No words, No bass for first half.]

|---------------------|------------------------|
|---------------------|------------------------|
|-5555-------222222~3-|-5555-------2222--------|
|------55555----------|------55555------33333--|

Chorus: [Quit crying your eyes out. Quit crying your eyes out...]

|-------------------------------------|---------------------------------------|
|-------------------------------------|---------------------------------------|
|-00000000----------22222222----------|-00000000----------22222222------------|
|----------33333333----------33333333-|----------33333333----------33333333---|

Chorus: [Quit crying your eyes out. Isn't there something familiar...]

|-------------------------------------|---------------------------------------|
|-------------------------------------|---------------------------------------|
|-00000000----------22222222----------|-00000000----------22222222------------|
|----------33333333----------33333333-|----------33333333----------33333333---|

Chorus: [So quit crying your eyes out, Baby.]

|----------------------------|-----|
|----------------------------|-----|
|-00000000-------------------|-5~~-|
|----------33333333333333333-|-----|


------------------------------------------------------------------------------------------

When Your Heart Stops Beating
Tabbed by Xero-P


> slide up
< slide down

www.PlusCuarentayCuatro.tk © Xero-P 2006

--Intro1--
I-------------------------------------------------------------------------------|I
I-----------------------------------------------------------5555555555555-------|I
I-000000000000333333333333-----------00000000000033333333330--------------------|I
I-------------------------33333333333-------------------------------------I-----| x2

--Verse1--
I----------------------------------------------------------------------------|I
I--------------------------------------------------------------5555555555----|I
I-000-0000000-000-333-3330------------000-0000000-000-333-3330---------------|I
I--------------------------3333-3330-----------------------------------------|I

I----------------------------------------------------------------------------|I
I-------------------------------------------------------------555555553------|I
I-000-0000000-000-333-3330------------000-0000000-000-333-3330---------53----|I
I--------------------------3333-3330-----------------------------------------|I

--Chorus1--
I------------------------------------------------------|I
I------------------------------------------------------|I
I--------------333333333333----------------------------|I
I-1111111111111------------000000000000055555555555----|I
x3

I------------------------------------------------------|I
I------------------------------------------------------|I
I--------------333333333333----------------------------|I
I-1111111111111------------000000000000000000000000----|I

--Intro2--
I----------------------------------------------------------------------------|I
I-----------------------------------------------------------5555555555555----|I
I-000000000000333333333333-----------00000000000033333333330-----------------|I
I-------------------------33333333333----------------------------------------|I

--Verse2--
I----------------------------------------------------------------------------|I
I------------------------------------------------------------5555555553------|I
I-000-0000000-000-333-3330-----------000-0000000-000-333-3330----------53----|I
I--------------------------3333-3330-----------------------------------------|I

--Chorus2--
I------------------------------------------------------|I
I------------------------------------------------------|I
I--------------333333333333----------------------------|I
I-1111111111111------------000000000000055555555555----|I
x3

I------------------------------------------------------|I
I------------------------------------------------------|I
I--------------333333333333----------------------------|I
I-1111111111111------------0000000000000---------------|I

I-----I
I-----I
I--0--I
I-----I

--bridge--
I--------------------------------------------|I
I--------------------------------------------|I
I---------------33>2<3-----------------------|I
I-55>3<5-55>3<5--------33>1<333333-55>3<5----|I

--Intro3--
I--------------------------------------------------------------------|I
I--------------------------------------------------------55555555----|I
I-000000000003333333330-----------00000000000033333333330------------|I
I----------------------3333333333------------------------------------|I

I------------------------------------|I
I------------------------------------|I
I-000000000003333333330--------------|I
I----------------------3333333333----|I

--Chorus3--
I------------------------------------------------------|I
I------------------------------------------------------|I
I--------------333333333333----------------------------|I
I-1111111111111------------000000000000055555555555----|I
x5

I------------------------------------------------------|I
I------------------------------------------------------|I
I--------------333333333333-----------------------0----|I
I-1111111111111------------0000000000000000000000------|I END


------------------------------------------------------------------------------------------


Little Death
Tabbed By Ibanezbass27

intro is only guitar

Verse (come in halfway through)
And every night our lonely planet....
G|-----------------------------------------------------------------|
D|-----------------------------------------------------------------|
A|----------------3333333333333333---------------------------------|
E|0000000000000000----------------000000000000000033333333333333333|

Verse 2(same thing come halfway through)
And even when you lock the doors....
G|-----------------------------------------------------------------|
D|-----------------------------------------------------------------|
A|----------------3333333333333333---------------------------------|
E|0000000000000000----------------000000000000000033333333333333333|

Chorus
G|----------------------------------------------------------------|
D|----------------------------------------------------------------|
A|----------------------------------------------------------------|x2
E|3333333333333333000000000000000033333333333333330000000000000000|

Verse(halfway through)
And one by one the years of our lives....
G|-----------------------------------------------------------------|
D|-----------------------------------------------------------------|
A|----------------3333333333333333---------------------------------|
E|0000000000000000----------------000000000000000033333333333333333|

Chorus
G|----------------------------------------------------------------|
D|----------------------------------------------------------------|
A|----------------------------------------------------------------|x2
E|3333333333333333000000000000000033333333333333330000000000000000|

Bridge
G|----------------------------------------------------------------|
D|----------------------------------------------------------------|
A|----------------------------------------------------------------|x2
E|3333333333333333000000000000000033333333333333330000000000000000|

Break
just guitar plays

Chorus
G|----------------------------------------------------------------|
D|----------------------------------------------------------------|
A|----------------------------------------------------------------|x2
E|3333333333333333000000000000000033333333333333330000000000000000|


-----------------------------------------------------------------------------------------


155
Tabbed by Unregistered User

Intro x2
G----------------|
D----------------|
A-8(x16)-4(x16)--|
E----------------|

Verse x2
G------------------------------|
D------------------------------|
A-8(x16)-4(x16)-8(x16)-6(x16)--|
E------------------------------|

Choirs
G-------------------------------------------------------------------------------|
D-------------------------------------------------------------------------------|
A------------------------------4(x16)------------------------------4(x8)-6(x8)--|
E-4(x16)-3(x16)-1(x16)-----------4(x16)-3(x16)-1(x16)---------------------------|

Intro x2
G----------------|
D----------------|
A-8(x16)-4(x16)--|
E----------------|

Verse2 x2
G------------------------------------------------------------------|
D------------------------------------------------------------------|
A-88-8888-88-8888-44-4444-44-4444-8---------------66-6666-66-6666--|
E------------------------------------------------------------------|

Choirs
G---------------------------------------------------------------------------------------|
D---------------------------------------------------------------------------------------|
A------------------------------4(x16)------------------------------4(x8)-6(x8)-----(8)--|
E-4(x16)-3(x16)-1(x16)-----------4(x16)-3(x16)-1(x16)-----------------------------------|

Theres a short pause right here

Bridge
G-------------------------------------------------------------------------|
D-------------------------------------------------------------------------|
A-88-8888-88-8888-44-4444-44-4444-8(x16)-4(x8)-6(x8)--8(x16)-4(x8)-6(x8)--|
E-------------------------------------------------------------------------|

Choirs x2
G---------------------------------------------------------------------------------------|
D---------------------------------------------------------------------------------------|
A------------------------------4(x16)------------------------------4(x8)-6(x8)-----(8)--|
E-4(x16)-3(x16)-1(x16)-----------4(x16)-3(x16)-1(x16)-----------------------------------|


-----------------------------------------------------------------------------------------


Lillian
Tabbed by childrenatplay4


Intro x2
G----------------|
D----------------|
A-8(x16)-4(x16)--|
E----------------|

Verse x2
G------------------------------|
D------------------------------|
A-8(x16)-4(x16)-8(x16)-6(x16)--|
E------------------------------|

Choirs
G-------------------------------------------------------------------------------|
D-------------------------------------------------------------------------------|
A------------------------------4(x16)------------------------------4(x8)-6(x8)--|
E-4(x16)-3(x16)-1(x16)-----------4(x16)-3(x16)-1(x16)---------------------------|

Intro x2
G----------------|
D----------------|
A-8(x16)-4(x16)--|
E----------------|

Verse2 x2
G------------------------------------------------------------------|
D------------------------------------------------------------------|
A-88-8888-88-8888-44-4444-44-4444-8---------------66-6666-66-6666--|
E------------------------------------------------------------------|

Choirs
G---------------------------------------------------------------------------------------|
D---------------------------------------------------------------------------------------|
A------------------------------4(x16)------------------------------4(x8)-6(x8)-----(8)--|
E-4(x16)-3(x16)-1(x16)-----------4(x16)-3(x16)-1(x16)-----------------------------------|

Theres a short pause right here

Bridge
G-------------------------------------------------------------------------|
D-------------------------------------------------------------------------|
A-88-8888-88-8888-44-4444-44-4444-8(x16)-4(x8)-6(x8)--8(x16)-4(x8)-6(x8)--|
E-------------------------------------------------------------------------|

Choirs x2
G---------------------------------------------------------------------------------------|
D---------------------------------------------------------------------------------------|
A------------------------------4(x16)------------------------------4(x8)-6(x8)-----(8)--|
E-4(x16)-3(x16)-1(x16)-----------4(x16)-3(x16)-1(x16)-----------------------------------|


------------------------------------------------------------------------------------------


Cliff Diving
Tabbed by Ibanezbass27


INTRO

G|----------------------------------------------------------------|
D|----------------------------------------------------------------|X2
A|----------------2222222233333333----------------3333333333333333|
E|3333333333333333----------------0000000000000000----------------|

VERSE

G|-------------------------------------------------------------------------------------------------------------------------|
D|-------------------------------------------------------------------------------------------------------------------------|
A|----------------2222222222222222----------------3333333333333333|X2  E|3333333333333333----------------0000000000000000--|

CHORUS

G|------------------------------------------------|
D|------------------------------------------------|
A|2-------------2------------2------------22222222|
E|-33-00-000000--3300-000000--3300-0000000--------|

G|----------------------------------------------------------------|
D|----------------------------------------------------------------|X2
A|----------------2222222233333333----------------3333333333333333|
E|3333333333333333----------------0000000000000000----------------|

VERSE

G|----------------------------------------------------------------|
D|----------------------------------------------------------------|
A|----------------2222222222222222----------------3333333333333333|   X2
E|3333333333333333----------------0000000000000000----------------|

CHORUS

G|---------------------------------------------------------|
D|---------------------------------------------------------|
A|2-------------2-------------2------------2222222222222222|
E|-33-00-000000--3300--000000--3300-0000000----------------|
-

G-----------------------------------------------------|
D-----------------------------------------------------|
A222-------------222------------222-----------22222222|
E---333-00000000----33300000000----33300000000--------|

BRIDGE

G|--------------------------------|
D|--------------------------------|
A|------------------------33333333| x4
E|333333333333333300000000--------|

CHORUS
G|--------------------------------------------------------|
D|--------------------------------------------------------|
A|2-------------2------------2------------2222222222222222|
E|-33-00-000000--3300-000000--3300-0000000----------------|

G|-----------------------------------------------------|
D|-----------------------------------------------------|
A|222-------------222------------222-----------22222222|
E|---333-00000000----33300000000----33300000000--------|

Outtro
G|--------------------------------|
D|--------------------------------|
A|------------------------33333333|x8
E|333333333333333300000000--------|


------------------------------------------------------------------------------------------


Interlude

I didnt feel like tabbing this song, and i couldn't find a tab


------------------------------------------------------------------------------------------


Weatherman
Tabbed by childrenatplay4


intro

g/---------------------------------------------------------|
d/---------------------------------------------------------|
a/-0~----------0~------3-----------------------------------|X ?
e/-------1~---------------1~-------------------------------|

verse
g/---------------------------------------------------------|
d/---------------------------------------------------------|
a/-0~----------0~------3-----------------------------------|X ?
e/-------1~---------------1~-------------------------------|

chourus

g/---------------------------------------------------------------|
d/---------------------------------------------------------- X 1-|
a/-000000000000-23333333333------------0000000000-233333333------|
e/--------------------------33-55-777----------------------------|

intlude

g/---------------------------------------------------------|
d/---------------------------------------------------------|
a/-0~----------0~------3-----------------------------------|X ?
e/-------1~---------------1~-------------------------------|

verse 2

g/---------------------------------------------------------|
d/---------------------------------------------------------|
a/-0~----------0~------3-----------------------------------|X ?
e/-------1~---------------1~-------------------------------|

chourus

g/---------------------------------------------------------------|
d/---------------------------------------------------------- X 2-|
a/-000000000000-23333333333------------0000000000-233333333------|
e/--------------------------33-55-777----------------------------|

brigde


g/----------------------------------------------------------|
d/----------------------------------------------------------|
a/-0~----------0~------3--------------------------------X 2-|
e/-------1~---------------1~--------------------------------|
different distortion


chourus

g/---------------------------------------------------------------|
d/---------------------------------------------------------- X 2-|
a/-000000000000-23333333333------------0000000000-233333333------|
e/--------------------------33-55-777----------------------------|


------------------------------------------------------------------------------------------


No, It Isn't
Tabbed by Donkey Fly (I changed the end of the song, the chorus, break, and ending)

   Intro               (The bass is very quiet at the start until up to the end)
    Moderate Q=120
   4/4
    Gtr I
||-----------|-----------|----------|--------||
||o----------|-----------|----------|-------o||
||o----------|-5\--------|-0--------|-/7----o||
||--2--------|-----------|----------|--------||


   Verse
||-----------|-----------|----------|--------||
||o----------|-----------|----------|-------o||
||o----------|-5\--------|-0--------|-/7----o||
||--2--------|-----------|----------|--------||


 Chorus
|-----------|----------|-----------|------|
|-----------|----------|-----------|------|
|-2------4--|-5--------|-9----7----|-5----|
|-----------|----------|-----------|------|


|-----------|----------|-----------|-----------|
|-----------|----------|-----------|-----------|
|-2------4--|-5--------|-9----7----|-5----4----|
|-----------|----------|-----------|-----------|


   Verse 2
                                             4x
||-----------|-----------|----------|--------||
||o----------|-----------|----------|-------o||
||o----------|-5\--------|-0--------|-/7----o||
||--2--------|-----------|----------|--------||


 Chorus
|-----------|----------|-----------|------|
|-----------|----------|-----------|------|
|-2------4--|-5--------|-9----7----|-5----|
|-----------|----------|-----------|------|


|-----------|----------|-----------|-----------|
|-----------|----------|-----------|-----------|
|-2------4--|-5--------|-9----7----|-5----4----|
|-----------|----------|-----------|-----------|


   Interlude
                            4x
||------------|-------------||
||o-----------|------------o||
||o-----------|-------5----o||
||--5\--------|-/7----------||

Chorus
G|--------------------------------------------------------|
D|--------------------------------------------------------|
A|222222222244555555555555----------------5555555555555555|X2
E|------------------------5555555544444444----------------|

break
G|--------------------------------|
D|--------------------------------|
A|----------------5555555555555555|X2
E|2222222222222222----------------|

G|----------------------------------------------------------------|
D|----------------------------------------------------------------|
A|----------------555555555555555500000000000000007777777777777777|X2
E|2222222222222222------------------------------------------------|


------------------------------------------------------------------------------------------


Make You Smile
Tabbed By childrenatplay4


intro

nothing

verse

g/--------------------------------------------------|
d/--------------------------------------------------|
a/---5----------------------------------------------|X4
e/---------------------5~-------------3~------------|

chourus 1
g/------------------------------------------------------|
d/------------4~----------------------------------------|
a/--5~--------------------------------------------------|x1
e/-----------------------3~-------------5~--------------|

verse 2

g/--------------------------------------------------|
d/--------------------------------------------------|
a/---5----------------------------------------------|X4
e/---------------------5~-------------3~------------|

chourus 1
g/------------------------------------------------------|
d/------------4~----------------------------------------|
a/--5~--------------------------------------------------|x1
e/-----------------------3~-------------5~--------------|

chourus 2
g/---------------------------------------------------------|
d/---------------------------------------------------------|
a/--55555555-77777777--------------------------------------|X1
e/------------------------33333333-55555555-3333333333333--|


intrulude

g/--------------------------------------------------|
d/--------------------------------------------------|
a/---5----------------------------------------------|X2
e/---------------------5~-------------3~------------|

bridge

g/--------------------------------------------------|
d/--------------------------------------------------|
a/---5----------------------------------------------|X4
e/---------------------5~-------------3~------------|


chourus 1
g/------------------------------------------------------|
d/------------4~----------------------------------------|
a/--5~--------------------------------------------------|x1
e/-----------------------3~-------------5~--------------|

chourus 3
g/---------------------------------------------------------|
d/---------------------------------------------------------|
a/--55555555-77777777--------------------------------------|X3
e/--------------------33333333-55555555--------------------|

end
g/---------------------------------------------------------|
d/---------------------------------------------------------|
a/--55555555-77777777--------------------------------------|X1
e/------------------------33333333-55555555-3333333333333--|


------------------------------------------------------------------------------------------

Chapter 13
tabbed by Ibanezbass27

Intro
G|-----------------------------------------------------------------|
D|-----------------------------------------------------------------|
A|33333333333333332222222222222222333333333333333332222222200000000|X2
E|-----------------------------------------------------------------|

Verse
G|----------------------------------------------------------------|
D|----------------------------------------------------------------|
A|5555555555555555222222222222222255555555555555552222222200000000|x2
E|----------------------------------------------------------------|

Chorus
G|---------------------------------------------------------|
D|---------------------------------------------------------|
A|--------------------------------222222222222222444444440~|X2
E|33333333333333332222222200000000-------------------------|

Verse 2
G|----------------------------------------------------------------|
D|----------------------------------------------------------------|
A|5555555555555555222222222222222255555555555555552222222200000000|x2
E|----------------------------------------------------------------|

Chorus
G|----------------------------------------------------------------|
D|----------------------------------------------------------------|
A|--------------------------------22222222222222244444444000000000|X2
E|33333333333333332222222200000000--------------------------------|
on 2nd time just play E|0 once and let ring

Bridge
G|---------------|
D|---------------|
A|---------------|X4
E|2~---3~---0~---|

G|----------------------------------------------------------------|
D|----------------------------------------------------------------|
A|5555555555555555222222222222222255555555555555552222222200000000|x4
E|----------------------------------------------------------------|

outtro
G|--------------------------------|
D|--------------------------------|
A|--------------------------------|X12
E|33333333333333332222222200000000|

            
            
Suggest correction
Creating personal tab
Creating personal tab
You can edit any tab online and save it as your Personal.

You can edit, replace or remove any tab part or add personal notes – all changes will be seen only by you.

Personal tabs can be accessed anytime from any device, even offline.
Learn more »
comments
print report bad tab
8 comments total. Showing first comments.
0 reply
LewisMasonx 1,741 Feb 15, 2007 11:54 AM

You put 155 as Lillian again, not sure if you noticed ;D Other than that, top tab!

0 reply
Blnkone82rulz 240 Feb 15, 2007 05:26 PM

some mistakes in some songs and u did put 155 again for lillian as lewismasonx said there are some parts that arent right

0 reply
NakedManInABush 40 Feb 15, 2007 08:54 PM

not bad.. however.. these are the things i picked up that are wrong when i went over it..

lycanthrope: fix the intro.. where you have the 677 should be 788 and you have the intro riff ending in a G, should be an F

WYHSB: the only thing is, i dont know if the intro verse where you go to the higher G (5th fret, D string) is right.. sounds to me like its just the same repeated with that G played on the E string

Little Death: verse sounds like ECEC rather than ECEG

Cliff Diving: should be: A---3
E----33-0000 x3 and ending: E---55555555 instead of that B note you have

Chapter Xiii: Intro should be same as verse.. I dont hear any C in there.. and in the chorus a slight change:
A-------------------2222222255550000
E---3333333322220000----------------

it's really not bad overall though, just slightly off here and there

guest
You may want to rate the tab now too:
select rating
Wanna post a correction for this tab? Suggest correction