Oops, an error
Loading. Please wait.
We have an official When Your Heart Stops Beating tab made by UG professional guitarists. Check out the tab »
×
by +44
75,490 views 54 this week
18 commentsread comments
1 2 3 4 5
x 56
add to favorites
×
Save as Personal and add changes to this tab that will be seen only by you. Learn more ›
×
You can save this tab as Personal to edit and correct it or add notes. All changes will be seen only by you. Learn more »
launch autoscroll
font size
0
reset
how to read this tab
guitar tuner
edit
Autoscroll
slow
fast
+/-
esc
set tempo
stop
Author
Unregistered
[Intro]
 Guitar 1 (2x)
e|--------------------------------------------|
B|-10-------------8-------10-------------17---|
G|----9---9----9----0--------9---9----9-----17|
D|------7---10-----------------7---10---------|
A|--------------------------------------------|
E|--------------------------------------------|

 Guitar 2 (4x)
e|-----------------------------------------------------------------|
B|-----------------------------------------------------------------|
G|---------------------------------5-5-5-5-5-5-5-5-----------------|
D|-7-7-7-7-7-7-7-7-7-7-7-7-7-7-7-7-5-5-5-5-5-5-5-5-5-5-5-5-5-5-5-5-|
A|-7-7-7-7-7-7-7-7-7-7-7-7-7-7-7-7-3-3-3-3-3-3-3-3-5-5-5-5-5-5-5-5-|
E|-5-5-5-5-5-5-5-5-5-5-5-5-5-5-5-5-----------------3-3-3-3-3-3-3-3-|

 [Verse] (4x)
 Palm-mute
e|-----------------------------------------------------------------|
B|-----------------------------------------------------------------|
G|---------------------------------5-5-5-5-5-5-5-5-----------------|
D|-7-7-7-7-7-7-7-7-7-7-7-7-7-7-7-7-5-5-5-5-5-5-5-5-5-5-5-5-5-5-5-5-|
A|-7-7-7-7-7-7-7-7-7-7-7-7-7-7-7-7-3-3-3-3-3-3-3-3-5-5-5-5-5-5-5-5-|
E|-5-5-5-5-5-5-5-5-5-5-5-5-5-5-5-5-----------------3-3-3-3-3-3-3-3-|

 [Chorus] (4x)
 Guitar 1
e|-----------------------------------------------------------------|
B|-----------------------------------------------------------------|
G|-----------------5-5-5-5-5-5-5-5---------------------------------|
D|-3-3-3-3-3-3-3-3-5-5-5-5-5-5-5-5-----------------2-2-2-2-2-2-2-2-|
A|-3-3-3-3-3-3-3-3-3-3-3-3-3-3-3-3-2-2-2-2-2-2-2-2-0-0-0-0-0-0-0-0-|
E|-1-1-1-1-1-1-1-1-----------------0-0-0-0-0-0-0-0-----------------|

 Guitar 2
e|----------------------------------------------|
B|---5-5-------3-3--------5-5------3-3----3-3---|
G|-------5---------5----------5-------5-5----5-5|
D|----------------------------------------------|
A|----------------------------------------------|
E|----------------------------------------------|

 [Verse] (2x) Palm-mute
e|-----------------------------------------------------------------|
B|-----------------------------------------------------------------|
G|---------------------------------5-5-5-5-5-5-5-5-----------------|
D|-7-7-7-7-7-7-7-7-7-7-7-7-7-7-7-7-5-5-5-5-5-5-5-5-5-5-5-5-5-5-5-5-|
A|-7-7-7-7-7-7-7-7-7-7-7-7-7-7-7-7-3-3-3-3-3-3-3-3-5-5-5-5-5-5-5-5-|
E|-5-5-5-5-5-5-5-5-5-5-5-5-5-5-5-5-----------------3-3-3-3-3-3-3-3-|

[Chorus] (4x)
 Guitar 1
e|-----------------------------------------------------------------|
B|-----------------------------------------------------------------|
G|-----------------5-5-5-5-5-5-5-5---------------------------------|
D|-3-3-3-3-3-3-3-3-5-5-5-5-5-5-5-5-----------------2-2-2-2-2-2-2-2-|
A|-3-3-3-3-3-3-3-3-3-3-3-3-3-3-3-3-2-2-2-2-2-2-2-2-0-0-0-0-0-0-0-0-|
E|-1-1-1-1-1-1-1-1-----------------0-0-0-0-0-0-0-0-----------------|

 Guitar 2
e|----------------------------------------------|
B|---5-5-------3-3--------5-5------3-3----3-3---|
G|-------5---------5----------5-------5-5----5-5|
D|----------------------------------------------|
A|----------------------------------------------|
E|----------------------------------------------|

 [Break] x2
e|-------------|
B|-------------|
G|-5--5--5-4---|
D|-------------|
A|--7--7--7----|
E|-------------|

 Guitar 1 (after break)
e|-----------------------------------------------------------|
B|-----------------------------------------------------------|
G|-----------------------------------------------------------|
D|0-0-0-0----0-0-0-0----5-5-5-5-----------------------0-0-0-0|
A|2-2-2-2----2-2-2-2----3-3-3-3----5-5-5-5-5-5-5-5----2-2-2-2|
E|---------------------------------3-3-3-3-3-3-3-3-----------|

 [Solo] (3x)
e|----------------------------------------|
B|----------------------------------------|
G|--------------------9--9-9--------------|
D|-10-10-9-10--10-9-10------10-9----------|
A|----------------------------------------|
E|----------------------------------------|

 [Chorus] (6x)
 Guitar 1
e|-----------------------------------------------------------------|
B|-----------------------------------------------------------------|
G|-----------------5-5-5-5-5-5-5-5---------------------------------|
D|-3-3-3-3-3-3-3-3-5-5-5-5-5-5-5-5-----------------2-2-2-2-2-2-2-2-|
A|-3-3-3-3-3-3-3-3-3-3-3-3-3-3-3-3-2-2-2-2-2-2-2-2-0-0-0-0-0-0-0-0-|
E|-1-1-1-1-1-1-1-1-----------------0-0-0-0-0-0-0-0-----------------|

 Guitar 2
e|----------------------------------------------|
B|---5-5-------3-3--------5-5------3-3----3-3---|
G|-------5---------5----------5-------5-5----5-5|
D|----------------------------------------------|
A|----------------------------------------------|
E|----------------------------------------------|

            
            
Suggest correction
Creating personal tab
Creating personal tab
You can edit any tab online and save it as your Personal.

You can edit, replace or remove any tab part or add personal notes – all changes will be seen only by you.

Personal tabs can be accessed anytime from any device, even offline.
Learn more »
comments
print report bad tab
18 comments total. Showing first comments.
0 reply
JonnyHand 10 Jan 23, 2007 10:11 AM

Don't think the guitar 2 part in the chorus is right

+1 reply
chris_red 185 Feb 26, 2007 07:34 AM

i think the solo sounds better like this:

Solo (3x)
|----------------------------------------|
|----------------------------------------|
|--------------------9-------------------|
|-10-10-9-10--10-9-10----10-9--7-5-------|
|----------------------------------------|
|----------------------------------------|

great tab though

+1 reply
ViperVenom 10 Mar 11, 2007 06:00 AM

i think the intro is slightly wrong where it goes from a 8 (G) to a 0 (G) i think the 0 i wrong but im not sure what it actually is

guest
Wanna post a correction for this tab? Suggest correction