Oops, an error
Loading. Please wait.
We have an official When Your Heart Stops Beating tab made by UG professional guitarists. Check out the tab »
×
by +44
1,616 views 1 this week
3 commentsread comments
1 2 3 4 5
x 4
add to favorites
×
Save as Personal and add changes to this tab that will be seen only by you. Learn more ›
×
You can save this tab as Personal to edit and correct it or add notes. All changes will be seen only by you. Learn more »
launch autoscroll
font size
0
reset
how to read this tab
guitar tuner
edit
Autoscroll
slow
fast
+/-
esc
set tempo
stop
Author
Difficulty
I took the powertab (the 1st version) and made it for two guitars, then exported it so 
you non-powertab people could have it to. Enjoy.

TheFiveStar


    Gtr I
||-------------------|-------------------|
||o------------------|-------------------|
||-------------------|-------------------|
||--7-7-7--7-7-7-7-7-|--7--7-7-7-7-7-7-7-|
||o-7-7-7--7-7-7-7-7-|--7--7-7-7-7-7-7-7-|
||--5-5-5--5-5-5-5-5-|--5--5-5-5-5-5-5-5-|
|
|   Gtr II
||-------------------|-------------------|
||o-------10---------|-------------------|
||---------------9---|-(9)-----------9---|
||-------------------|---------7---------|
||o------------------|-------------------|
||-------------------|-------------------|


|--------------------|--------------------|
|------------------8-|--8--8-8--8-8-8-8-8-|
|--5--5-5--5-5-5-5-7-|--7--7-7--7-7-7-7-7-|
|--5--5-5--5-5-5-5-5-|--5--5-5--5-5-5-5-5-|
|--3--3-3--3-3-3-3---|--------------------|
|--------------------|--------------------|
|
|--------------------|--------------------|
|--------------------|--------------------|
|-(9)------------9---|-(9)-----12-----0---|
|---------10---------|--------------------|
|--------------------|--------------------|
|--------------------|--------------------|


|------------------|-------------------|
|------------------|-------------------|
|------------------|-------------------|
|-7-7-7--7-7-7-7-7-|--7--7-7-7-7-7-7-7-|
|-7-7-7--7-7-7-7-7-|--7--7-7-7-7-7-7-7-|
|-5-5-5--5-5-5-5-5-|--5--5-5-5-5-5-5-5-|
|
|------------------|-------------------|
|-------10---------|-------------------|
|-0------------9---|-(9)-----------9---|
|------------------|---------7---------|
|------------------|-------------------|
|------------------|-------------------|


|--------------------|---------------------||
|------------------8-|--8--8-8--8-8-8-8-8-o||
|--5--5-5--5-5-5-5-7-|--7--7-7--7-7-7-7-7--||
|--5--5-5--5-5-5-5-5-|--5--5-5--5-5-5-5-5--||
|--3--3-3--3-3-3-3---|--------------------o||
|--------------------|---------------------||
|
|--------------------|---------12-----8----||
|--------------------|--------------------o||
|-(9)------------9---|-(9)-----------------||
|---------10---------|---------------------||
|--------------------|--------------------o||
|--------------------|---------------------||


   verse
                                                                              4x
||--------------------|-----------------|-----------------|-------------------||
||o-------------------|-----------------|-----------------|------------------o||
||--------------------|-----------------|-----------------|-7-7-7-7-7-7-7-7---||
||--------------------|-----------------|-5-5-5-5-5-5-5-5-|-5-5-5-5-5-5-5-5---||
||o--7--7-7-7-7-7-7-7-|-7-7-7-7-7-7-7-7-|-3-3-3-3-3-3-3-3-|------------------o||
||---5--5-5-5-5-5-5-5-|-5-5-5-5-5-5-5-5-|-----------------|-------------------||
|
|
|                                                                             4x
||--------------------|-----------------|-----------------|-------------------||
||o-------------------|-----------------|-----------------|------------------o||
||--------------------|-----------------|-----------------|-------------------||
||--------------------|-----------------|-----------------|-------------------||
||o-------------------|-----------------|-----------------|------------------o||
||--------------------|-----------------|-----------------|-------------------||


 chorus
|-----------------|-------------------|-------------------|-------------------|
|-----------------|-------------------|-------------------|-------------------|
|-----------------|--5--5-5-5-5-5-5-5-|-------------------|--2--2-2-2-2-2-2-2-|
|-3-3-3-3-3-3-3-3-|--5--5-5-5-5-5-5-5-|--2--2-2-2-2-2-2-2-|--2--2-2-2-2-2-2-2-|
|-3-3-3-3-3-3-3-3-|--3--3-3-3-3-3-3-3-|--2--2-2-2-2-2-2-2-|--0--0-0-0-0-0-0-0-|
|-1-1-1-1-1-1-1-1-|-------------------|--0--0-0-0-0-0-0-0-|-------------------|
|
|-------0-0-------|-------------------|---------0-0-------|-------------------|
|-------------1---|-(1)-----3-3---1---|-(1)-----------1---|-(1)-----3-3---1---|
|-----------------|-------------------|-------------------|-------------------|
|-----------------|-------------------|-------------------|-------------------|
|-----------------|-------------------|-------------------|-------------------|
|-----------------|-------------------|-------------------|-------------------|


|-------------------|-------------------|
|-------------------|-------------------|
|-------------------|--5--5-5-5-5-5-5-5-|
|--3--3-3-3-3-3-3-3-|--5--5-5-5-5-5-5-5-|
|--3--3-3-3-3-3-3-3-|--3--3-3-3-3-3-3-3-|
|--1--1-1-1-1-1-1-1-|-------------------|
|
|---------0-0-------|-------------------|
|-(1)-----------1---|-(1)-----3-3---1---|
|-------------------|-------------------|
|-------------------|-------------------|
|-------------------|-------------------|
|-------------------|-------------------|


|-------------------|-------------------|
|-------------------|-------------------|
|-------------------|--2--2-2-2-2-2-2-2-|
|--2--2-2-2-2-2-2-2-|--2--2-2-2-2-2-2-2-|
|--2--2-2-2-2-2-2-2-|--0--0-0-0-0-0-0-0-|
|--0--0-0-0-0-0-0-0-|-------------------|
|
|---------0-0-------|-------------------|
|-(1)-----------1---|-(1)-----3-3---1---|
|-------------------|-------------------|
|-------------------|-------------------|
|-------------------|-------------------|
|-------------------|-------------------|


|---------------------|---------------------|
|---------------------|---------------------|
|---------------------|--5--5--5--5-5-5-5-5-|
|--3--3--3--3-3-3-3-3-|--5--5--5--5-5-5-5-5-|
|--3--3--3--3-3-3-3-3-|--3--3--3--3-3-3-3-3-|
|--1--1--1--1-1-1-1-1-|---------------------|
|
| Gtr II
|-------12-12-----8---|-(8)---10-10-----8---|
|-(1)----5--5---------|---------------------|
|--------9--9-----5---|-(5)----7--7-----5---|
|---------------------|---------------------|
|---------------------|---------------------|
|---------------------|---------------------|


|---------------------|---------------------|
|---------------------|---------------------|
|---------------------|--2--2--2--2-2-2-2-2-|
|--2--2--2--2-2-2-2-2-|--2--2--2--2-2-2-2-2-|
|--2--2--2--2-2-2-2-2-|--0--0--0--0-0-0-0-0-|
|--0--0--0--0-0-0-0-0-|---------------------|
|
|-(8)---12-12-----8---|-(8)---10-10-----8---|
|--------5--5---------|---------------------|
|-(5)----9--9-----5---|-(5)----7--7-----5---|
|---------------------|---------------------|
|---------------------|---------------------|
|---------------------|---------------------|


|---------------------|---------------------|
|---------------------|---------------------|
|---------------------|--5--5--5--5-5-5-5-5-|
|--3--3--3--3-3-3-3-3-|--5--5--5--5-5-5-5-5-|
|--3--3--3--3-3-3-3-3-|--3--3--3--3-3-3-3-3-|
|--1--1--1--1-1-1-1-1-|---------------------|
|
|-(8)---12-12-----8---|-(8)---10-10-----8---|
|--------8--8-----5---|-(5)----6--6-----5---|
|-(5)----9--9-----5---|-(5)----7--7-----5---|
|---------------------|---------------------|
|---------------------|---------------------|
|---------------------|---------------------|


|---------------------|---------------------|
|---------------------|---------------------|
|---------------------|--2--2--2--2-2-2-2-2-|
|--2--2--2--2-2-2-2-2-|--2--2--2--2-2-2-2-2-|
|--2--2--2--2-2-2-2-2-|--0--0--0--0-0-0-0-0-|
|--0--0--0--0-0-0-0-0-|---------------------|
|
|-(8)---12-12-----8---|-(8)---10-10-----8---|
|-(5)----8--8-----5---|-(5)----6--6-----5---|
|-(5)----9--9-----5---|-(5)----7--7-----5---|
|---------------------|---------------------|
|---------------------|---------------------|
|---------------------|---------------------|


 pre verse
|------------------|-------------------|
|------------------|-------------------|
|------------------|-------------------|
|-7-7-7--7-7-7-7-7-|--7--7-7-7-7-7-7-7-|
|-7-7-7--7-7-7-7-7-|--7--7-7-7-7-7-7-7-|
|-5-5-5--5-5-5-5-5-|--5--5-5-5-5-5-5-5-|
|
| Gtrs II, III
|------------------|-------------------|
|-------10---------|-------------------|
|--------------9---|-(9)-----------9---|
|------------------|---------7---------|
|------------------|-------------------|
|------------------|-------------------|


|------------------7-|--7--7-7--8-8-7-7-7-|
|------------------8-|--8--8-8--8-8-8-8-8-|
|--5--5-5--5-5-5-5-7-|--7--7-7--7-7-7-7-7-|
|--5--5-5--5-5-5-5---|--------------------|
|--3--3-3--3-3-3-3---|--------------------|
|--------------------|--------------------|
|
|--------------------|--------------------|
|--------------------|--------------------|
|-(9)------------9---|-(9)-----12-----0---|
|---------10---------|--------------------|
|--------------------|--------------------|
|--------------------|--------------------|


|--------------------|-------------------|
|--------------------|-------------------|
|--------------------|-------------------|
|--7--7-7--7-7-7-7-7-|--7--7-7-7-7-7-7-7-|
|--7--7-7--7-7-7-7-7-|--7--7-7-7-7-7-7-7-|
|--5--5-5--5-5-5-5-5-|--5--5-5-5-5-5-5-5-|
|
|--------------------|-------------------|
|---------10---------|-------------------|
|-(0)------------9---|-(9)-----------9---|
|--------------------|---------7---------|
|--------------------|-------------------|
|--------------------|-------------------|


|------------------7-|--7--7-7--8-8-7-7-7-|
|------------------8-|--8--8-8--8-8-8-8-8-|
|--5--5-5--5-5-5-5-7-|--7--7-7--7-7-7-7-7-|
|--5--5-5--5-5-5-5---|--------------------|
|--3--3-3--3-3-3-3---|--------------------|
|--------------------|--------------------|
|
|--------------------|---------12-----8---|
|--------------------|--------------------|
|-(9)------------9---|-(9)----------------|
|---------10---------|--------------------|
|--------------------|--------------------|
|--------------------|--------------------|


   verse 2
||--------------------|-----------------|
||o-------------------|-----------------|
||--------------------|-----------------|
||------7---7---7---7-|---7---7---7---7-|
||o-------------------|-----------------|
||---5----5---5---5---|-5---5---5---5---|
|
|    >
||--(8)---------------|-----------------|
||o-------------------|-----------------|
||--------------------|-----------------|
||--------------------|-----------------|
||o-------------------|-----------------|
||--------------------|-----------------|


|---------------------|---------------------------||
|---------------------|--------------------------o||
|---------------------|----12----12----12----12---||
|---10---10---10---10-|---------------------------||
|---------------------|-10----10----10----10-----o||
|-8----8----8----8----|---------------------------||
|
|---------------------|---------------------------||
|---------------------|--------------------------o||
|---------------------|---------------------------||
|---------------------|---------------------------||
|---------------------|--------------------------o||
|---------------------|---------------------------||


 chorus
|-----------------|-------------------|-------------------|-------------------|
|-----------------|-------------------|-------------------|-------------------|
|-----------------|--5--5-5-5-5-5-5-5-|-------------------|--2--2-2-2-2-2-2-2-|
|-3-3-3-3-3-3-3-3-|--5--5-5-5-5-5-5-5-|--2--2-2-2-2-2-2-2-|--2--2-2-2-2-2-2-2-|
|-3-3-3-3-3-3-3-3-|--3--3-3-3-3-3-3-3-|--2--2-2-2-2-2-2-2-|--0--0-0-0-0-0-0-0-|
|-1-1-1-1-1-1-1-1-|-------------------|--0--0-0-0-0-0-0-0-|-------------------|
|
|-----0-0---------|-------------------|-------0-0---------|-------------------|
|-------------1---|-(1)---3-3-----1---|-(1)-----------1---|-(1)---3-3-----1---|
|-----------------|-------------------|-------------------|-------------------|
|-----------------|-------------------|-------------------|-------------------|
|-----------------|-------------------|-------------------|-------------------|
|-----------------|-------------------|-------------------|-------------------|


|-------------------|-------------------|
|-------------------|-------------------|
|-------------------|--5--5-5-5-5-5-5-5-|
|--3--3-3-3-3-3-3-3-|--5--5-5-5-5-5-5-5-|
|--3--3-3-3-3-3-3-3-|--3--3-3-3-3-3-3-3-|
|--1--1-1-1-1-1-1-1-|-------------------|
|
|-------0-0---------|-------------------|
|-(1)-----------1---|-(1)---3-3-----1---|
|-------------------|-------------------|
|-------------------|-------------------|
|-------------------|-------------------|
|-------------------|-------------------|


|-------------------|-------------------|
|-------------------|-------------------|
|-------------------|--2--2-2-2-2-2-2-2-|
|--2--2-2-2-2-2-2-2-|--2--2-2-2-2-2-2-2-|
|--2--2-2-2-2-2-2-2-|--0--0-0-0-0-0-0-0-|
|--0--0-0-0-0-0-0-0-|-------------------|
|
|-------0-0---------|-------------------|
|-(1)-----------1---|-(1)---3-3-----1---|
|-------------------|-------------------|
|-------------------|-------------------|
|-------------------|-------------------|
|-------------------|-------------------|


|---------------------|---------------------|
|---------------------|---------------------|
|---------------------|--5--5--5--5-5-5-5-5-|
|--3--3--3--3-3-3-3-3-|--5--5--5--5-5-5-5-5-|
|--3--3--3--3-3-3-3-3-|--3--3--3--3-3-3-3-3-|
|--1--1--1--1-1-1-1-1-|---------------------|
|
| Gtr II
|-------12-12-----8---|-(8)---10-10-----8---|
|-(1)----5--5---------|---------------------|
|--------9--9-----5---|-(5)----7--7-----5---|
|---------------------|---------------------|
|---------------------|---------------------|
|---------------------|---------------------|


|---------------------|---------------------|
|---------------------|---------------------|
|---------------------|--2--2--2--2-2-2-2-2-|
|--2--2--2--2-2-2-2-2-|--2--2--2--2-2-2-2-2-|
|--2--2--2--2-2-2-2-2-|--0--0--0--0-0-0-0-0-|
|--0--0--0--0-0-0-0-0-|---------------------|
|
|-(8)---12-12-----8---|-(8)---10-10-----8---|
|--------5--5---------|---------------------|
|-(5)----9--9-----5---|-(5)----7--7-----5---|
|---------------------|---------------------|
|---------------------|---------------------|
|---------------------|---------------------|


|---------------------|---------------------|
|---------------------|---------------------|
|---------------------|--5--5--5--5-5-5-5-5-|
|--3--3--3--3-3-3-3-3-|--5--5--5--5-5-5-5-5-|
|--3--3--3--3-3-3-3-3-|--3--3--3--3-3-3-3-3-|
|--1--1--1--1-1-1-1-1-|---------------------|
|
|-(8)---12-12-----8---|-(8)---10-10-----8---|
|--------8--8-----5---|-(5)----6--6-----5---|
|-(5)----9--9-----5---|-(5)----7--7-----5---|
|---------------------|---------------------|
|---------------------|---------------------|
|---------------------|---------------------|


|---------------------|---------------------|
|---------------------|---------------------|
|---------------------|---------------------|
|--2--2--2--2-2-2-2-2-|---------------------|
|--2--2--2--2-2-2-2-2-|---------------------|
|--0--0--0--0-0-0-0-0-|---------------------|
|
|-(8)---12-12-----8---|-12-12-8-8-12-12-8-8-|
|-(5)----8--------5---|--6--6-5-5--6--6-5-5-|
|-(5)----9--9-----5---|--9--9-5-5--9--9-5-5-|
|---------------------|---------------------|
|---------------------|---------------------|
|---------------------|---------------------|


 bridge
                                              >
|------------|--------------|--------------|--------|
|------------|--------------|--------------|--------|
|-2----------|-(2)----------|-(2)----------|-(2)----|
|-2----------|-(2)----------|-(2)----------|-(2)----|
|-0----------|-(0)----------|-(0)----------|-(0)----|
|------------|--------------|--------------|--------|
|
|
|------------|--------------|--------------|--------|
|------------|--------------|--------------|--------|
|-----5------|-------5------|-------5------|--4-----|
|---------2--|-(2)-------2--|-(2)-------2--|--------|
|------------|--------------|--------------|--------|
|------------|--------------|--------------|--------|


|--------------|--------------|--------------|-----------|
|--------------|--------------|--------------|-----------|
|-(2)----------|--------------|--------------|---------2-|
|-(2)----------|--------------|--------------|---------2-|
|-(0)----------|--------------|--------------|---------0-|
|--------------|--------------|--------------|-----------|
|
|--------------|--------------|--------------|-----------|
|--------------|--------------|--------------|-----------|
|-(4)---5------|-------5------|-------5------|-4---------|
|-----------2--|-(2)-------2--|-(2)-------2--|-----------|
|--------------|--------------|--------------|-----------|
|--------------|--------------|--------------|-----------|


|-------------|-------------|-------------|-----------------|
|-------------|-------------|-------------|-----------------|
|-2-2-2-----2-|-2-2-2-----5-|-5-5-5-------|---------------2-|
|-2-2-2-----2-|-2-2-2-----5-|-5-5-5-----5-|-5-5-5---------2-|
|-0-0-0-----0-|-0-0-0-----3-|-3-3-3-----5-|-5-5-5-5-5-5-5-0-|
|-------------|-------------|-----------3-|-3-3-3-3-3-3-3---|


 interlude
|------------------|----------------------|
|------------------|----------------------|
|-2-2-2---2-2--2-2-|---2--2-2--2-2--2-2-2-|
|-2-2-2---2-2--2-2-|---2--2-2--2-2--2-2-2-|
|-0-0-0---0-0--0-0-|---0--0-0--0-0--0-0-0-|
|------------------|----------------------|
|
|
|------------------|----------------------|
|------------------|----------------------|
|------------------|------------------9---|
|--------10-9-10---|-(10)-----10-9-10-----|
|------------------|----------------------|
|------------------|----------------------|


|--------------------|-------------------|
|--------------------|-------------------|
|--5--5-5-5-5--5-5-5-|-------------------|
|--5--5-5-5-5--5-5-5-|--5--5-5-5-5-5-5-5-|
|--3--3-3-3-3--3-3-3-|--5--5-5-5-5-5-5-5-|
|--------------------|--3--3-3-3-3-3-3-3-|
|
|--------------------|-------------------|
|--------------------|-------------------|
|-(9)-----9-9--------|-------------------|
|-------------10-9---|-(9)---------------|
|--------------------|-------------------|
|--------------------|-------------------|


||-----------------------|----------------------|
||o----------------------|----------------------|
||---2--2-2--2--2-2--2-2-|---2--2-2--2-2--2-2-2-|
||---2--2-2--2--2-2--2-2-|---2--2-2--2-2--2-2-2-|
||o--0--0-0--0--0-0--0-0-|---0--0-0--0-0--0-0-0-|
||-----------------------|----------------------|
|
||-----------------------|----------------------|
||o----------------------|----------------------|
||-----------------------|------------------9---|
||--(9)-----10-10-9-10---|-(10)-----10-9-10-----|
||o----------------------|----------------------|
||-----------------------|----------------------|


|--------------------|---------------------||
|--------------------|--------------------o||
|--5--5-5-5-5--5-5-5-|---------------------||
|--5--5-5-5-5--5-5-5-|--5--5-5-5-5-5-5-5---||
|--3--3-3-3-3--3-3-3-|--5--5-5-5-5-5-5-5--o||
|--------------------|--3--3-3-3-3-3-3-3---||
|
|--------------------|---------------------||
|--------------------|--------------------o||
|-(9)-----9-9--------|---------------------||
|-------------10-9---|-(9)-----------------||
|--------------------|--------------------o||
|--------------------|---------------------||


 out chorus
|-----------------|-------------------|-------------------|-------------------|
|-----------------|-------------------|-------------------|-------------------|
|-----------------|--5--5-5-5-5-5-5-5-|-------------------|--2--2-2-2-2-2-2-2-|
|-3-3-3-3-3-3-3-3-|--5--5-5-5-5-5-5-5-|--2--2-2-2-2-2-2-2-|--2--2-2-2-2-2-2-2-|
|-3-3-3-3-3-3-3-3-|--3--3-3-3-3-3-3-3-|--2--2-2-2-2-2-2-2-|--0--0-0-0-0-0-0-0-|
|-1-1-1-1-1-1-1-1-|-------------------|--0--0-0-0-0-0-0-0-|-------------------|
|
|-----0-0---------|-------------------|-------0-0---------|-------------------|
|-------------1---|-(1)---3-3-----1---|-(1)-----------1---|-(1)---3-3-----1---|
|-----------------|-------------------|-------------------|-------------------|
|-----------------|-------------------|-------------------|-------------------|
|-----------------|-------------------|-------------------|-------------------|
|-----------------|-------------------|-------------------|-------------------|


|-------------------|-------------------|
|-------------------|-------------------|
|-------------------|--5--5-5-5-5-5-5-5-|
|--3--3-3-3-3-3-3-3-|--5--5-5-5-5-5-5-5-|
|--3--3-3-3-3-3-3-3-|--3--3-3-3-3-3-3-3-|
|--1--1-1-1-1-1-1-1-|-------------------|
|
|-------0-0---------|-------------------|
|-(1)-----------1---|-(1)---3-3-----1---|
|-------------------|-------------------|
|-------------------|-------------------|
|-------------------|-------------------|
|-------------------|-------------------|


|-------------------|-------------------|
|-------------------|-------------------|
|-------------------|--2--2-2-2-2-2-2-2-|
|--2--2-2-2-2-2-2-2-|--2--2-2-2-2-2-2-2-|
|--2--2-2-2-2-2-2-2-|--0--0-0-0-0-0-0-0-|
|--0--0-0-0-0-0-0-0-|-------------------|
|
|-------0-0---------|-------------------|
|-(1)-----------1---|-(1)---3-3-----1---|
|-------------------|-------------------|
|-------------------|-------------------|
|-------------------|-------------------|
|-------------------|-------------------|


|---------------------|---------------------|
|---------------------|---------------------|
|---------------------|--5--5--5--5-5-5-5-5-|
|--3--3--3--3-3-3-3-3-|--5--5--5--5-5-5-5-5-|
|--3--3--3--3-3-3-3-3-|--3--3--3--3-3-3-3-3-|
|--1--1--1--1-1-1-1-1-|---------------------|
|
|
|-------12-12-----8---|-(8)---10-10-----8---|
|-(1)-----------------|---------------------|
|--------9--9-----5---|-(5)----7--7-----5---|
|---------------------|---------------------|
|---------------------|---------------------|
|---------------------|---------------------|


|---------------------|---------------------|
|---------------------|---------------------|
|---------------------|--2--2--2--2-2-2-2-2-|
|--2--2--2--2-2-2-2-2-|--2--2--2--2-2-2-2-2-|
|--2--2--2--2-2-2-2-2-|--0--0--0--0-0-0-0-0-|
|--0--0--0--0-0-0-0-0-|---------------------|
|
|-(8)---12-12-----8---|-(8)---10-10-----8---|
|---------------------|---------------------|
|-(5)----9--9-----5---|-(5)----7--7-----5---|
|---------------------|---------------------|
|---------------------|---------------------|
|---------------------|---------------------|


|---------------------|---------------------|
|---------------------|---------------------|
|---------------------|--5--5--5--5-5-5-5-5-|
|--3--3--3--3-3-3-3-3-|--5--5--5--5-5-5-5-5-|
|--3--3--3--3-3-3-3-3-|--3--3--3--3-3-3-3-3-|
|--1--1--1--1-1-1-1-1-|---------------------|
|
|-(8)---12-12-----8---|-(8)---10-10-----8---|
|---------------------|---------------------|
|-(5)----9--9-----5---|-(5)----7--7-----5---|
|---------------------|---------------------|
|---------------------|---------------------|
|---------------------|---------------------|
|
|--------0--0---------|---------------------|
|--1--------------1---|-(1)----3--3-----1---|
|---------------------|---------------------|
|---------------------|---------------------|
|---------------------|---------------------|
|---------------------|---------------------|


|---------------------|---------------------|
|---------------------|---------------------|
|---------------------|--2--2--2--2-2-2-2-2-|
|--2--2--2--2-2-2-2-2-|--2--2--2--2-2-2-2-2-|
|--2--2--2--2-2-2-2-2-|--0--0--0--0-0-0-0-0-|
|--0--0--0--0-0-0-0-0-|---------------------|
|
|-(8)---12-12-----8---|-(8)---10-10-----8---|
|---------------------|---------------------|
|-(5)----9--9-----5---|-(5)----7--7-----5---|
|---------------------|---------------------|
|---------------------|---------------------|
|---------------------|---------------------|
|
|--------0--0---------|---------------------|
|-(1)-------------1---|-(1)----3--3-----1---|
|---------------------|---------------------|
|---------------------|---------------------|
|---------------------|---------------------|
|---------------------|---------------------|


|---------------------|---------------------|
|---------------------|---------------------|
|---------------------|--5--5--5--5-5-5-5-5-|
|--3--3--3--3-3-3-3-3-|--5--5--5--5-5-5-5-5-|
|--3--3--3--3-3-3-3-3-|--3--3--3--3-3-3-3-3-|
|--1--1--1--1-1-1-1-1-|---------------------|
|
|-(8)---12-12-----8---|-(8)---10-10-----8---|
|--------8--8-----5---|-(5)----6--6-----5---|
|-(5)----9--9-----5---|-(5)----7--7-----5---|
|---------------------|---------------------|
|---------------------|---------------------|
|---------------------|---------------------|


|---------------------|---------------------|
|---------------------|---------------------|
|---------------------|--2--2--2--2-2-2-2-2-|
|--2--2--2--2-2-2-2-2-|--2--2--2--2-2-2-2-2-|
|--2--2--2--2-2-2-2-2-|--0--0--0--0-0-0-0-0-|
|--0--0--0--0-0-0-0-0-|---------------------|
|
|-(8)---12-12-----8---|-(8)---10-10-----8---|
|-(5)----8--8-----5---|-(5)----6--6-----5---|
|-(5)----9--9-----5---|-(5)----7--7-----5---|
|---------------------|---------------------|
|---------------------|---------------------|
|---------------------|---------------------|


|---------------------|---------------------|
|---------------------|---------------------|
|---------------------|--5--5--5--5-5-5-5-5-|
|--3--3--3--3-3-3-3-3-|--5--5--5--5-5-5-5-5-|
|--3--3--3--3-3-3-3-3-|--3--3--3--3-3-3-3-3-|
|--1--1--1--1-1-1-1-1-|---------------------|
|
|-(8)---12-12-----8---|-(8)---10-10-----8---|
|-(5)----8--8-----5---|-(5)----6--6-----5---|
|-(5)----9--9-----5---|-(5)----7--7-----5---|
|---------------------|---------------------|
|---------------------|---------------------|
|---------------------|---------------------|


|---------------------|-----------------------|
|---------------------|-----------------------|
|---------------------|--2--2--2--2-2-2--2--2-|
|--2--2--2--2-2-2-2-2-|--2--2--2--2-2-2--2--2-|
|--2--2--2--2-2-2-2-2-|--0--0--0--0-0-0--0--0-|
|--0--0--0--0-0-0-0-0-|-----------------------|
|
|-(8)---12-12-----8---|-12-12-10-10-8-8-10-10-|
|-(5)----8--8-----5---|--8--8--6--6-5-5--6--6-|
|-(5)----9--9-----5---|--9--9--7--7-5-5--7--7-|
|---------------------|-----------------------|
|---------------------|-----------------------|
|---------------------|-----------------------|


|------|
|------|
|-2----|
|-2----|
|-0----|
|------|
|
|------|
|-5----|
|-5----|
|------|
|------|
|------|
Suggest correction
Creating personal tab
Creating personal tab
You can edit any tab online and save it as your Personal.

You can edit, replace or remove any tab part or add personal notes – all changes will be seen only by you.

Personal tabs can be accessed anytime from any device, even offline.
Learn more »
comments
print report bad tab
3 comments total.
0 reply
HH_Emo_666 242 Jan 08, 2007 11:17 AM

how do u play

12
5
9
x
x
x

0 reply
TheFiveStar 31 Jan 08, 2007 11:55 AM

my bad, that is supposed to be

12
x
9
x
x
x

there's a bunch of those. i'll do better next time

0 reply
sir-psycho-sexy 31 Aug 13, 2007 04:35 AM

not a criticism just a way of playing the chorus if you have no mates....

e|-----0-0-0-------|-----0-0-0---------|-----0-0-0-------|-----------------|
B|-1-1-1-1-1-1-1-1-|-1-1-3-3-3-x-1-1-1-|-----0-0-0-1-1-1-|-1-1-3-3-3---1-1-|
G|-2-2-2-2-2-0-0-0-|-0-0-0-0-0-x-0-0-0-|-1-1-1-1-1-1-1-1-|-2-2-2-2-2-2-2-2-|
D|-3-3---------3-3-|-2-2-------x-2-2-2-|-2-2-2-2-2-2-2-2-|-2-2-2-2-2-2-2-2-|
A|-3-3---------3-3-|-3-3-------x-3-3-3-|-2-2-2-2-2-2-2-2-|-0-0-0-0-0-0-0-0-|
E|-----------------|-------------------|-0-0-0-0-0-0-0-0-|-----------------|

Just a suggestion, sounds good on an acoustic....

guest
You may want to rate the tab now too:
select rating
Wanna post a correction for this tab? Suggest correction