Oops, an error
Loading. Please wait.

Whats Up Tab

version 1
version 1
349,943 views 381 this week
4 commentsread comments
1 2 3 4 5
x 35
add to favorites
launch autoscroll
font size
0
reset
how to read this tab
guitar tuner
Autoscroll
slow
fast
+/-
esc
set tempo
stop
Help us to improve Ultimate-Guitar.com Take our survey!
×
Author/Artist: 4 Non Blondes
Title: What's Up
Transcribed by: Matteo (guitarist of the "Black River")
Email: blackriverofficial@hotmail.com


That is a very easy song...there are 2 guitar play in the song:one acoustic
and one electric. The first make only a chords progression, the second make a
sorts of SOLO riff, but very easy. Listen the song to understand timing.
Here the riffs:

1? Guitar: Acoustic                              [Chords Progression:  A   Bm   D   Asus]
2? Guitar: Electric (with very little distorsion)[see the riff below]


[Intro Riff]

e|--------------------------------------------------------------------|
B|------------------------------------------------------3-------------|
G|--7/9--9--9--9----------------2-----------2-----2--2-----2--4/6-----|
D|----------------7--7/4--2--4-----4--2--4-----4-------------------7--|
A|--------------------------------------------------------------------|
E|--------------------------------------------------------------------|


[Verse Riff]

e|----------------------------------------------------------------|
B|----------------------------------------------------------------|
G|--------------2-------------2-----------2-----2--------2-----2--|
D|--2--4--2--4-----7/4--2--4-----4--2--4-----4-----2--4-----4-----|
A|----------------------------------------------------------------|
E|----------------------------------------------------------------|


[Chorus]

(Make the acoustic chords progression with little distorsion
Listen the song to understand timing)

A   Bm   D   Asus


[Solo 1]

e|--------------------------------------------------------------------------|
B|----------------------------------------3---------------------------------|
G|----------------2-----------2-----2--2-----2--4/6-----------------2-------|
D|--7--7/4--2--4-----4--2--4-----4-------------------7--2--4--2--4-----7/4--|
A|--------------------------------------------------------------------------|
E|--------------------------------------------------------------------------|


e|----------------------------------------------|
B|--------------------------------3-------------|
G|--------2-----------2-----2--2-----2--4/6-----|
D|--2--4-----4--2--4-----4-------------------7--|
A|----------------------------------------------|
E|----------------------------------------------|


[Solo 2]

e|--------------------------------------------------------------------|
B|------------------------------------------------------3-------------|
G|--7/9--9--9--9----------------2-----------2-----2--2-----2--4/6-----|
D|----------------7--7/4--2--4-----4--2--4-----4-------------------7--|
A|--------------------------------------------------------------------|
E|--------------------------------------------------------------------|

 

25 years of my life and still
Tryin' to to get up that great big hill of
Hope, for a destination.
I realized quickly when I knew I should
That the world was made up of this brotherhood of
Man, for whatever that means.

And so I cry sometimes, when I'm lying in bed
just to get all out, what's in my head, then
I, I am feeling, a little peculiar.
And so I wake in the morning, and I step outside
And I take a deep breath, and I get real high, and
I, scream from the top of my lungs, "What's going on?"

And I say, "Hey yeah yeah hey, hey yeah yeah."
I said, "Hey, what's going on?"
And I say, "Hey yeah yeah hey, hey yeah yeah."
I said, "Hey, what's going on?"

Ooh ooh ooh.....

And I try, oh my god, do I try
I try all the time, in this institution.
And I pray, oh my god, do I pray
I pray every single day, for a revolution.

25 years of my life and still
Tryin' to get up that great big hill of
Hope, for a destination. . .



************************************

| /  Slide up

************************************
Suggest correction
comments
print report bad tab
4 comments total. Showing first comments. show 1 bad comment
0 reply
guitarlover865 128 Feb 21, 2008 03:49 PM

really awesome

0 reply
mandy1808 21 Mar 21, 2009 05:06 PM

Thanks!!! It sounds very close to the original. =)

guest
You may want to rate the tab now too:
select rating
Wanna post a correction for this tab? Suggest correction