Oops, an error
Loading. Please wait.
We have an official Whats Up tab made by UG professional guitarists. Check out the tab »
×
182,794 views 213 this week
6 commentsread comments
1 2 3 4 5
x 67
add to favorites
×
Save as Personal and add changes to this tab that will be seen only by you. Learn more ›
×
You can save this tab as Personal to edit and correct it or add notes. All changes will be seen only by you. Learn more »
launch autoscroll
font size
0
reset
how to read this tab
guitar tuner
backing track
0:00
0:00
edit
Autoscroll
slow
fast
+/-
esc
set tempo
stop
Email: Kenster85hero@hotmail.com

I havn't seen any tab online of this song that was correct so i sat down and tabbed
it all out note for note. I'm pretty sure it's just like the album version. Let me
know what you think.

Tuning: Standard- EADGBE

1st Guitar: Acoustic: Strums this progression through the whole song non-stop
[A   Bm   D   A]
2nd Guitar: Electric: with a bit of distortion playing this:


[Intro Riff]

e|-------------------|-------------------------------------|-----------------|
B|-------------------|-------------------------------------|-----3-----1/2---|
G|--7/9--9--9--9-----|-----------------2-----------2-----2-|--2-----2------2-|
D|----------------7--|--7-7-7/4--2--4-----4--2--4-----4----|-----------------|
A|-------------------|-------------------------------------|-----------------|
E|-------------------|-------------------------------------|-----------------|


[Verse Riff]

                25 years of my life and still...
e|----------------|-------------------------------------|-----------------|
B|----------------|-------------------------------------|-----------------|
G|--------------2-|-----------------2-----------2-----2-|--------2-----2--|
D|--0--2--0--2----|--7-7-7/4--2--4-----4--2--4-----4----|--2--4-----4-----| x2
A|----------------|-------------------------------------|-----------------|
E|----------------|-------------------------------------|-----------------|



[Pre Chorus]

2nd guitar electric with distortion:

      A               Bm                 D              A

 And so I cry sometimes, when I'm lying in bed...  
e|--0-------|--2----------2-------|--2----2--------|--0-------|
B|--2-------|--3-------3-----3----|--3-------3-----|--2-------|
G|--2-------|--4----4-----------4-|--2-------------|--2-------|
D|--2-------|--4------------------|--0-------------|--2-------|
A|--0-------|--2------------------|----------------|--0-------|
E|----------|--2------------------|----------------|----------|

       A               Bm                 D              A
 And so I wake in the morning...                      "What's going on?"...
e|--0----0-----|--2----------2-------|--2----2--------|--0-------|
B|--2-------2--|--3-------3-----3----|--3-------3-----|--2-------|
G|--2----------|--4----4-----------4-|--2-------------|--2-------|
D|--2----------|--4------------------|--0-------------|--2-------|
A|--0----------|--2------------------|----------------|--0-------|
E|-------------|--2------------------|----------------|----------|


[Chorus]

2nd Electric guitar strumming with 1st guitar.

And I say, "Hey yeah yeah hey, hey yeah yeah."

[A   Bm   D   A] x2


[Intro Riff] x2


[Verse]

 And I try, oh my god, do I try...
e|----------------|-------------------------------------|-----------------|
B|----------------|-------------------------------------|-----------------|
G|--------------2-|-----------------2-----------2-----2-|--------2-----2--|
D|--0--2--0--2----|--7-7-7/4--2--4-----4--2--4-----4----|--2--4-----4-----| x2
A|----------------|-------------------------------------|-----------------|
E|----------------|-------------------------------------|-----------------|


[Pre-chorus]

      A               Bm                 D              A

 And so I cry sometimes, when I'm lying in bed...  
e|--0-------|--2----------2-------|--2----2--------|--0--------0--------|
B|--2-------|--3-------3-----3----|--3-------3-----|--2-----------2-----|
G|--2-------|--4----4-----------4-|--2-------------|--2-----2--------2--|
D|--2-------|--4------------------|--0-------------|--2-----------------|
A|--0-------|--2------------------|----------------|--0-----------------|
E|----------|--2------------------|----------------|--------------------|

         A               Bm                 D                 A

 And so I wake in the morning...                        "What's going on?"...
e|--0-------------|--2--------------|--2----2----------|--0------7b--5--7b--|
B|--2----2--------|--3--------------|--3-------3-----3-|--2---5-------------|
G|--2-------2-----|--4----3/5--3----|--2----------2----|--2-----------------|
D|--2--2-------2--|--4--------------|--0---------------|--2-----------------|
A|--0-------------|--2--------------|------------------|--0-----------------|
E|----------------|--2--------------|------------------|--------------------|


[Chorus]

      A            Bm                D                A

 And I say, "Hey yeah yeah hey, hey yeah yeah."
e|--0---------|--2---------|--2-------------------|--0-------|
B|--2---------|--3---------|--3-------------------|--2-------|
G|--2---------|--4---------|--2----------2-----2--|--2-------| 
D|--2---------|--4---------|--0----2--4-----4-----|--2-------| x4
A|--0---------|--2---------|----------------------|--0-------|
E|------------|--2---------|----------------------|----------|


[Outro]

                  Ooh ooh ooh.....
e|-------------------|-------------------------------------|-----------------|
B|-------------------|-------------------------------------|-----3-----1/2---|
G|--7/9--9--9--9-----|-----------------2-----------2-----2-|--2-----2------2-|
D|----------------7--|--7-7-7/4--2--4-----4--2--4-----4----|-----------------|
A|-------------------|-------------------------------------|-----------------|
E|-------------------|-------------------------------------|-----------------|

End with 1st Acoustic guitar playing one riff:

[A   Bm   D   A]
25 years of my life and still
Tryin' to get up that great big hill of
Hope, for a destination. . .
Suggest correction
Creating personal tab
Creating personal tab
You can edit any tab online and save it as your Personal.

You can edit, replace or remove any tab part or add personal notes – all changes will be seen only by you.

Personal tabs can be accessed anytime from any device, even offline.
Learn more »
comments
print report bad tab
6 comments total. Showing first comments.
+2 reply
jonas69 10 Sep 07, 2007 11:10 AM

great f uckin tab dude;) well done

0 reply
vbackseatromeov 41 Jan 17, 2011 02:08 PM

greatest ****ing song ever, great tab

+4 reply
mangoninja 96 Oct 02, 2013 08:24 PM

3rd section of the intro riff is not right. It's hard to know what gets played here with so much distortion but i think its better to go with a bend than a slide. eg:

|-----------------|
|-----3-----3b4---|
|--2-----2--4b5-2-|
|-----------------|
|-----------------|
|-----------------|

guest
You may want to rate the tab now too:
select rating
Wanna post a correction for this tab? Suggest correction