Oops, an error
Loading. Please wait.

Submission For Liberty Tab

version 1
version 1

Whole song

Interactive

by 4Arm
1,932 views 3 this week
no commentswrite comment
1 2 3 4 5
excellent!
x 4
add to favorites
launch autoscroll
font size
0
reset
how to read this tab
guitar tuner
Autoscroll
slow
fast
+/-
esc
set tempo
stop
Help us to improve Ultimate-Guitar.com Take our survey!
×
Author
Tuning
C G C F A D
http://www.4arm.net/

4ARM: Submission for Liberty.

Dropped 'C'

Written by: D.Tomb & M.Vafiotis

-----------------------------------------------------------------|-----|
-----------------------------------------------------------------|-----|
-----------------------------------------------------------------|-----|
-------------------7-----8-8-8-7---------------3-----------------|-----|
-----5---5---5-6-5-5-----6-6-6-5-----5---5-6-5-1-------0-1-0-----|--5--|
-0-0---0---0---------0-0---------0-0---0---------3-3-2-------3-0-|-----|


-----------------------------------------------------------------------|
-----------------------------------------------------------------------|
-----------------------------------------------------------------------|
-------------------7-----8---8---8-7---------------3-------------------|
-----5---5---5-6-5-5-----6---6---6-5-----5---5-6-5-1-------0-1-0-------|
-0-0---0---0---------0-0---0---0-----0-0---0---------3-3-2-------3-0---|

                         sl.sl.   sl.   sl.   P  Harm.
-------------------------------------------|------------------|--------|
-------------------------------------------|------------------|--------|
---------------------------8/7-7-8/7-7-8/7-|------------------|--------|
-----2-2-2-2-3-3-332-2-2-2-----------------|----------------5-|---2----|
-----2-2-2-2-3-3-332-2-2-2/6/5-5-6/5-5-6/5-|----------------3-|---0----|
-0-0---------------------------------------|-3-0-3-5--0-3-5---|--------|

Verse Riff.
 sl.             sl.
---------------------------------|-------------------------------------|
---------------------------------|-------------------------------------|
---------------------------------|-------------------------------------|
---------------------------------|-------------------------------------|
-6/--------------6---------------|-------------------------------------|
-6/-0-0-00000000-6/-0-0-00000000-|-333-3-3-3-3-333-3-3-3-3-333-555-222-|


                             Chorus.
                                                   sl.     P   Harm.
-----------------------------|-----------------------------------------|
-----------------------------|-----------------------------------------|
-----------------------------|-----------------------------------------|
-----------------------------|---------7-----5-----4/5-4---------------|
-----------------------------|-0-------5-----3-----2/3-2---------------|
-2-2-2-2-111-1-1-1-1-111-111-|-0---0-3---0-0---0-0--------3-0-3-5-0-3-5|



                     sl.
--------------------------------------|--------------------------------|
--------------------------------------|--------------------------------|
--------------------------------------|--------------------------------|
--------7-----5-----4/5-4-----------4-|--------------------------------|
-0------5-----3-----2/3-2-2-2-2-2-2-2-|-----5----5----5----5-----------|
-0--0-3---0-0---0-0-------------------|-00005000050000500005-----------|




---------------------------------------------|
---------------------------------------------|
---------------------------------------------|
---------------------------------------------|
---------5-------------5-------------5-------|
-0-0-0-0---6-5-0-0-0-0---6-5-0-0-0-0---6-5-0-|




---------------------------------------------------------|
---------------------------------------------------------|
---------------------------------------------------------|
-----------------------------------------------------8-7-|
-----5---5---5-7-8---8---7---5-------5---5---3---3-0-6-5-|
-0-0---0---0-------0---0---0---0-0-0---0---0---0-3-0-----|



-----------------------------------------------------------------------|
-----------------------------------------------------------------------|
-----------------------------------------------------------------------|
-------------------------------------------------3---------------------|
-----5---5---5-7-8---8---7---5-------5---5---3---1-------0-1-0---------|
-0-0---0---0-------0---0---0---0-0-0---0---0---0---3-3-2-------3-0-----|




---------------------------------------------------------|-----------------|
---------------------------------------------------------|-----------------|
---------------------------------------------------------|-----------------|
-----2---2---2-4-5---5---4---2-------2---2---2---3-2-8-7-|-3---------------|
-2-2---2---2-------2---2---2---2-2-2---2---2---2-1-0-6-5-|-1-------0-1-0---|
---------------------------------------------------------|---3-3-2-------3-|




---------------------------------------------------------|-----------------|
---------------------------------------------------------|-----------------|
---------------------------------------------------------|-----------------|
-----5---5---5-7-8---8---7---5-------5---5---5---5---8-7-|-3---------------|
-5-5---5---5-------5---5---5---5-5-5---5---5---5-3-4-6-5-|-1-------0-1-0---|
---------------------------------------------------4-----|---3-3-2-------3-|



                                                                    Harm.
-----------------------------------------------------------------------|
-----------------------------------------------------------------------|
-----------------------------------------------------------------------|
-3-----------------3-----------------3-----------------3---------------|
-1-------0-1-0-----1-------0-1-0-----1-------0-1-0-----1-------0-1-0---|
---3-3-2-------3-0---3-3-2-------3-0---3-3-2-------3-0---3-3-2-------3-|



                    Full.
------------------|--12--|--------------------|---------|--------------|
------------------|--15/-|--------------------|---------|--------------|
------------------|------|--------------------|---------|--------------|
------------------|------|--------------------|---------|----------8-7-|
-3-2--2-1--1-0--0-|------|--------------------|-------3-|----------6-5-|
-3-2--2-1--1-0--0-|------|-0-0-0-00000000-0-0-|-000-0-3-|-0-000-00-----|



                                              H   H   H   H
-------------------------------------------------------------|-----------|
-------------------------------------------------------------|-----------|
-------------------------------------------------------------|-----------|
-------------------------------------------------------------|-----------|
---------5-------------5-------------5---------------3-5-3-5-|-----5----5|
-0-0-0-0---6-5-0-0-0-0---6-5-0-0-0-0---6-5-0-5-6-5-6---------|-0000500005|




          P              Harm.
-----------------------------|
-----------------------------|
-----------------------------|
-----------------------------|
-----------------------------|
-0-0-0-0-3-0-3-5-0-0-0-3-0-5-|



--------------------------------------------------|
--------------------------------------------------|
--------------------------------------------------|
-------------3-------------------------------5--2-|
-----5-----5-1-------0-1-0-------------------3--0-|
-0-0-5-0-0-5---3-3-2-------3-0-3-0-3-5-0-3-5------|
Suggest correction
comments
print report bad tab
guest
You may want to rate the tab now too:
select rating
Wanna post a correction for this tab? Suggest correction