Oops, an error
Loading. Please wait.

Candy Shop Tab

version 1
version 1

Whole song

Interactive

by 50 Cent
48,199 views 69 this week
35 commentsread comments
1 2 3 4 5
x 35
add to favorites
launch autoscroll
font size
0
reset
how to read this tab
guitar tuner
Autoscroll
slow
fast
+/-
esc
set tempo
stop
Author
TUNED Drop D

INTRO
E|-9-----7----5----4----2--------|
B|--10----9----7----5----3-------|
G|----11---9----7----6----4------|
D|-------------------------------|
A|-------------------------------|
D|-------------------------------|

2X   HI
E|--------------------------------------------------------------|
B|--8--8--7--7-----8--8--5--7-----8--8--7--7---5--7--8--10--8---|
G|--------------------------------------------------------------|
D|--------------------------------------------------------------|
A|9-10-10-9--9---9-10-10-7--9---9-10-10-9--9---7--9--10--12-9---|
D|--------------------------------------------------------------|

E|-------------------------------|
B|-------------------------------|
G|-------------------------------|
D|---5544---5544---5544---24574--|
A|-------------------------------|
D|-4-5544-4-5544-4-5544-4-24574--|

CHORUS  LOW   (I TAKE YOU TO THE CANDY SHOP...)
E|-------------------------------|                
B|-------------------------------|(2X)           
G|-------------------------------|               
D|---5544---5524---5544---24574--|
A|-------------------------------|
D|-4-5544-4-5524-4-5544-4-24574--|
                                                   
2X   HI
E|--------------------------------------------------------------|
B|--8--8--7--7-----8--8--5--7-----8--8--7--7---5--7--8--10--8---|
G|--------------------------------------------------------------|
D|--------------------------------------------------------------|
A|9-10-10-9--9---9-10-10-7--9---9-10-10-9--9---7--9--10--12-9---|
D|--------------------------------------------------------------|

************************************

| \  Slide down

************************************
Suggest correction
comments
print report bad tab
35 comments total. Showing first comments.
0 reply
FreedomFighter 102 Apr 22, 2005 08:00 PM

O_o

+2 reply
guitar21@WE 254 Apr 22, 2005 08:00 PM

How the F uck do tab 50 Cent? lol
Nice job, but just weird.

+3 reply
lespaul13 31 Apr 23, 2005 08:00 PM

what has guitar tabs come to?

guest
You may want to rate the tab now too:
select rating
Wanna post a correction for this tab? Suggest correction