Oops, an error
Loading. Please wait.

Candy Shop Tab

version 2
version 2

Whole song

Interactive

9,231 views 9 this week
2 commentsread comments
1 2 3 4 5
worth learning
x 4
add to favorites
launch autoscroll
font size
0
reset
how to read this tab
guitar tuner
Autoscroll
slow
fast
+/-
esc
set tempo
stop
Help us to improve Ultimate-Guitar.com Take our survey!
×
This is a really easy one to play and work out, took me 5 mins... sounds best on bass with high treble.

NOTE: this timing is not correct but its too easy to work out...

                                  Cand Shop                  


Track 1
                                                                 
E||----------------------|-------|----------------------|-------|
B||----------------------|-------|----------------------|-------|
G||----------------------|-------|----------------------|-------|
D||----------------------|-------|----------------------|-------|
A||-------1----1----0----|--0----|-------1----1---------|--0----|
E||--0-------------------|-------|--0--------------3----|-------|


                                                               
----------------------|-------|----------------------|-------||
----------------------|-------|----------------------|-------||
----------------------|-------|----------------------|-------||
----------------------|-------|----------------------|-------||
-------1----1----0----|--0----|------------1----3----|--0----||
--0-------------------|-------|--0----3--------------|-------||

Repeat...
Suggest correction
comments
print report bad tab
2 comments total.
0 reply
Stealthbass 253 wrote on November 16 2005, 06:39 pm

the key sounds off maybe

|-------------
|-------------
|----3-3--2-2-
|0------------

0 reply
blgblg 20 wrote on November 20 2007, 09:46 am

that's completely off key

guest
You may want to rate the tab now too:
select rating
Please do not post tabs as comments. Select "correction" instead!