Oops, an error
Loading. Please wait.

In Da Club Bass

version 1
version 1

Whole song

Interactive

10,028 views 9 this week
2 commentsread comments
1 2 3 4 5
x 5
add to favorites
launch autoscroll
font size
0
reset
guitar tuner
×
Best way to learn
"In Da Club"
Autoscroll
slow
fast
+/-
esc
set tempo
stop
Author
(go,go,go)
G|---------------------------------------------------------------
D|---------------------------------------------------------------
A|----5---4---4--5--2--4-----------------------------------------
E|---------------------------------------------------------------
(you can find me in da club)
G|----5---4---4--5--2--4-----------------------------------------
D|---------------------------------------------------------------
A|---------------------------------------------------------------
E|---------------------------------------------------------------
(after the chrus the tone goes to the d, than to the a like this)
G|---------------------------------------------------------------
D|-----5---4-----------------------------------------------------
A|-------------4--5--2--4--5---4---------------------------------
E|---------------------------------------------------------------

Me name is mad an u r welcome
Suggest correction
comments
print report bad tab
2 comments total.
0 reply
MopedsRGangsta 10 Mar 21, 2006 02:24 PM

think ur order is a lil off, think it goes like this

G|---------------------
D|---------------------
A|---4-5---2-4---5-4---
E|---------------------

0 reply
Dibble16 10 Aug 08, 2014 07:45 AM

Lack of accuracy. Clearly wrong.

guest
You may want to rate the tab now too:
select rating
Wanna post a correction for this tab? Suggest correction